999
dxflib 2.0.4.8
  0
SECTION
  2
HEADER
  9
$ACADVER
  1
AC1015
  9
$HANDSEED
  5
FFFF
  9
$DIMASZ
 40
2.5
  9
$DIMGAP
 40
0.625
  9
$DIMEXO
 40
0.625
  9
$INSUNITS
 70
4
  9
$DIMTXT
 40
2.5
  9
$PLIMMAX
 10
210.0
 20
297.0
  9
$PLIMMIN
 10
0.0
 20
0.0
  9
$DIMEXE
 40
1.25
  0
ENDSEC
  0
SECTION
  2
TABLES
  0
TABLE
  2
VPORT
  5
8
100
AcDbSymbolTable
 70
1
  0
VPORT
  5
30
100
AcDbSymbolTableRecord
100
AcDbViewportTableRecord
  2
*Active
 70
0
 10
0.0
 20
0.0
 11
1.0
 21
1.0
 12
286.3055555555554861
 22
148.5
 13
0.0
 23
0.0
 14
10.0
 24
10.0
 15
10.0
 25
10.0
 16
0.0
 26
0.0
 36
1.0
 17
0.0
 27
0.0
 37
0.0
 40
297.0
 41
1.92798353909465
 42
50.0
 43
0.0
 44
0.0
 50
0.0
 51
0.0
 71
0
 72
100
 73
1
 74
3
 75
1
 76
1
 77
0
 78
0
281
0
 65
1
110
0.0
120
0.0
130
0.0
111
1.0
121
0.0
131
0.0
112
0.0
122
1.0
132
0.0
 79
0
146
0.0
  0
ENDTAB
  0
TABLE
  2
LTYPE
  5
5
100
AcDbSymbolTable
 70
21
  0
LTYPE
  5
14
100
AcDbSymbolTableRecord
100
AcDbLinetypeTableRecord
  2
ByBlock
 70
0
  3

 72
65
 73
0
 40
0.0
  0
LTYPE
  5
15
100
AcDbSymbolTableRecord
100
AcDbLinetypeTableRecord
  2
ByLayer
 70
0
  3

 72
65
 73
0
 40
0.0
  0
LTYPE
  5
16
100
AcDbSymbolTableRecord
100
AcDbLinetypeTableRecord
  2
CONTINUOUS
 70
0
  3
Solid line
 72
65
 73
0
 40
0.0
  0
LTYPE
  5
31
100
AcDbSymbolTableRecord
100
AcDbLinetypeTableRecord
  2
DOT
 70
0
  3
Dot . . . . . . . . . . . . . . . . . . . . . .
 72
65
 73
2
 40
6.3499999999999996
 49
0.0
 74
0
 49
-6.3499999999999996
 74
0
  0
LTYPE
  5
32
100
AcDbSymbolTableRecord
100
AcDbLinetypeTableRecord
  2
DOT2
 70
0
  3
Dot (.5x) .....................................
 72
65
 73
2
 40
3.1749999999999998
 49
0.0
 74
0
 49
-3.1749999999999998
 74
0
  0
LTYPE
  5
33
100
AcDbSymbolTableRecord
100
AcDbLinetypeTableRecord
  2
DOTX2
 70
0
  3
Dot (2x) .  .  .  .  .  .  .  .  .  .  .  .  .
 72
65
 73
2
 40
12.6999999999999993
 49
0.0
 74
0
 49
-12.6999999999999993
 74
0
  0
LTYPE
  5
34
100
AcDbSymbolTableRecord
100
AcDbLinetypeTableRecord
  2
DASHED
 70
0
  3
Dashed __ __ __ __ __ __ __ __ __ __ __ __ __ _
 72
65
 73
2
 40
19.0500000000000007
 49
12.6999999999999993
 74
0
 49
-6.3499999999999996
 74
0
  0
LTYPE
  5
35
100
AcDbSymbolTableRecord
100
AcDbLinetypeTableRecord
  2
DASHED2
 70
0
  3
Dashed (.5x) _ _ _ _ _ _ _ _ _ _ _ _ _ _ _ _ _
 72
65
 73
2
 40
9.5250000000000004
 49
6.3499999999999996
 74
0
 49
-3.1749999999999998
 74
0
  0
LTYPE
  5
36
100
AcDbSymbolTableRecord
100
AcDbLinetypeTableRecord
  2
DASHEDX2
 70
0
  3
Dashed (2x) ____  ____  ____  ____  ____  ___
 72
65
 73
2
 40
38.1000000000000014
 49
25.3999999999999986
 74
0
 49
-12.6999999999999993
 74
0
  0
LTYPE
  5
37
100
AcDbSymbolTableRecord
100
AcDbLinetypeTableRecord
  2
DASHDOT
 70
0
  3
Dash dot __ . __ . __ . __ . __ . __ . __ . __
 72
65
 73
4
 40
25.3999999999999986
 49
12.6999999999999993
 74
0
 49
-6.3499999999999996
 74
0
 49
0.0
 74
0
 49
-6.3499999999999996
 74
0
  0
LTYPE
  5
38
100
AcDbSymbolTableRecord
100
AcDbLinetypeTableRecord
  2
DASHDOT2
 70
0
  3
Dash dot (.5x) _._._._._._._._._._._._._._._.
 72
65
 73
4
 40
12.6999999999999993
 49
6.3499999999999996
 74
0
 49
-3.1749999999999998
 74
0
 49
0.0
 74
0
 49
-3.1749999999999998
 74
0
  0
LTYPE
  5
39
100
AcDbSymbolTableRecord
100
AcDbLinetypeTableRecord
  2
DASHDOTX2
 70
0
  3
Dash dot (2x) ____  .  ____  .  ____  .  ___
 72
65
 73
4
 40
50.7999999999999972
 49
25.3999999999999986
 74
0
 49
-12.6999999999999993
 74
0
 49
0.0
 74
0
 49
-12.6999999999999993
 74
0
  0
LTYPE
  5
3A
100
AcDbSymbolTableRecord
100
AcDbLinetypeTableRecord
  2
DIVIDE
 70
0
  3
Divide ____ . . ____ . . ____ . . ____ . . ____
 72
65
 73
6
 40
31.75
 49
12.6999999999999993
 74
0
 49
-6.3499999999999996
 74
0
 49
0.0
 74
0
 49
-6.3499999999999996
 74
0
 49
0.0
 74
0
 49
-6.3499999999999996
 74
0
  0
LTYPE
  5
3B
100
AcDbSymbolTableRecord
100
AcDbLinetypeTableRecord
  2
DIVIDE2
 70
0
  3
Divide (.5x) __..__..__..__..__..__..__..__.._
 72
65
 73
6
 40
15.875
 49
6.3499999999999996
 74
0
 49
-3.1749999999999998
 74
0
 49
0.0
 74
0
 49
-3.1749999999999998
 74
0
 49
0.0
 74
0
 49
-3.1749999999999998
 74
0
  0
LTYPE
  5
3C
100
AcDbSymbolTableRecord
100
AcDbLinetypeTableRecord
  2
DIVIDEX2
 70
0
  3
Divide (2x) ________  .  .  ________  .  .  _
 72
65
 73
6
 40
63.5
 49
25.3999999999999986
 74
0
 49
-12.6999999999999993
 74
0
 49
0.0
 74
0
 49
-12.6999999999999993
 74
0
 49
0.0
 74
0
 49
-12.6999999999999993
 74
0
  0
LTYPE
  5
3D
100
AcDbSymbolTableRecord
100
AcDbLinetypeTableRecord
  2
CENTER
 70
0
  3
Center ____ _ ____ _ ____ _ ____ _ ____ _ ____
 72
65
 73
4
 40
50.7999999999999972
 49
31.75
 74
0
 49
-6.3499999999999996
 74
0
 49
6.3499999999999996
 74
0
 49
-6.3499999999999996
 74
0
  0
LTYPE
  5
3E
100
AcDbSymbolTableRecord
100
AcDbLinetypeTableRecord
  2
CENTER2
 70
0
  3
Center (.5x) ___ _ ___ _ ___ _ ___ _ ___ _ ___
 72
65
 73
4
 40
28.5749999999999993
 49
19.0500000000000007
 74
0
 49
-3.1749999999999998
 74
0
 49
3.1749999999999998
 74
0
 49
-3.1749999999999998
 74
0
  0
LTYPE
  5
3F
100
AcDbSymbolTableRecord
100
AcDbLinetypeTableRecord
  2
CENTERX2
 70
0
  3
Center (2x) ________  __  ________  __  _____
 72
65
 73
4
 40
101.5999999999999943
 49
63.5
 74
0
 49
-12.6999999999999993
 74
0
 49
12.6999999999999993
 74
0
 49
-12.6999999999999993
 74
0
  0
LTYPE
  5
40
100
AcDbSymbolTableRecord
100
AcDbLinetypeTableRecord
  2
BORDER
 70
0
  3
Border __ __ . __ __ . __ __ . __ __ . __ __ .
 72
65
 73
6
 40
44.4500000000000028
 49
12.6999999999999993
 74
0
 49
-6.3499999999999996
 74
0
 49
12.6999999999999993
 74
0
 49
-6.3499999999999996
 74
0
 49
0.0
 74
0
 49
-6.3499999999999996
 74
0
  0
LTYPE
  5
41
100
AcDbSymbolTableRecord
100
AcDbLinetypeTableRecord
  2
BORDER2
 70
0
  3
Border (.5x) __.__.__.__.__.__.__.__.__.__.__.
 72
65
 73
6
 40
22.2250000000000014
 49
6.3499999999999996
 74
0
 49
-3.1749999999999998
 74
0
 49
6.3499999999999996
 74
0
 49
-3.1749999999999998
 74
0
 49
0.0
 74
0
 49
-3.1749999999999998
 74
0
  0
LTYPE
  5
42
100
AcDbSymbolTableRecord
100
AcDbLinetypeTableRecord
  2
BORDERX2
 70
0
  3
Border (2x) ____  ____  .  ____  ____  .  ___
 72
65
 73
6
 40
88.9000000000000057
 49
25.3999999999999986
 74
0
 49
-12.6999999999999993
 74
0
 49
25.3999999999999986
 74
0
 49
-12.6999999999999993
 74
0
 49
0.0
 74
0
 49
-12.6999999999999993
 74
0
  0
ENDTAB
  0
TABLE
  2
LAYER
  5
2
100
AcDbSymbolTable
 70
6
  0
LAYER
  5
10
100
AcDbSymbolTableRecord
100
AcDbLayerTableRecord
  2
0
 70
0
 62
7
  6
CONTINUOUS
370
0
390
F
  0
LAYER
  5
43
100
AcDbSymbolTableRecord
100
AcDbLayerTableRecord
  2
1
 70
0
 62
6
  6
CONTINUOUS
370
0
390
F
  0
LAYER
  5
44
100
AcDbSymbolTableRecord
100
AcDbLayerTableRecord
  2
2
 70
0
 62
2
  6
CONTINUOUS
370
0
390
F
  0
LAYER
  5
45
100
AcDbSymbolTableRecord
100
AcDbLayerTableRecord
  2
3
 70
0
 62
3
  6
CONTINUOUS
370
0
390
F
  0
LAYER
  5
46
100
AcDbSymbolTableRecord
100
AcDbLayerTableRecord
  2
4
 70
0
 62
1
  6
CONTINUOUS
370
0
390
F
  0
LAYER
  5
47
100
AcDbSymbolTableRecord
100
AcDbLayerTableRecord
  2
5
 70
0
 62
5
  6
CONTINUOUS
370
0
390
F
  0
ENDTAB
  0
TABLE
  2
STYLE
  5
3
100
AcDbSymbolTable
 70
1
  0
STYLE
  5
11
100
AcDbSymbolTableRecord
100
AcDbTextStyleTableRecord
  2
Standard
 70
0
 40
0.0
 41
0.75
 50
0.0
 71
0
 42
2.5
  3
txt
  4

  0
ENDTAB
  0
TABLE
  2
VIEW
  5
6
100
AcDbSymbolTable
 70
0
  0
ENDTAB
  0
TABLE
  2
UCS
  5
7
100
AcDbSymbolTable
 70
0
  0
ENDTAB
  0
TABLE
  2
APPID
  5
9
100
AcDbSymbolTable
 70
1
  0
APPID
  5
12
100
AcDbSymbolTableRecord
100
AcDbRegAppTableRecord
  2
ACAD
 70
0
  0
ENDTAB
  0
TABLE
  2
DIMSTYLE
  5
A
100
AcDbSymbolTable
 70
1
100
AcDbDimStyleTable
 71
0
  0
DIMSTYLE
105
27
100
AcDbSymbolTableRecord
100
AcDbDimStyleTableRecord
  2
Standard
 41
2.5
 42
0.625
 43
3.75
 44
1.25
 70
0
 73
0
 74
0
 77
1
 78
8
140
2.5
141
2.5
143
0.03937007874016
147
0.625
171
3
172
1
271
2
272
2
274
3
278
44
283
0
284
8
340
11
  0
ENDTAB
  0
TABLE
  2
BLOCK_RECORD
  5
1
100
AcDbSymbolTable
 70
1
  0
BLOCK_RECORD
  5
1F
100
AcDbSymbolTableRecord
100
AcDbBlockTableRecord
  2
*Model_Space
340
22
  0
BLOCK_RECORD
  5
1B
100
AcDbSymbolTableRecord
100
AcDbBlockTableRecord
  2
*Paper_Space
340
1E
  0
BLOCK_RECORD
  5
23
100
AcDbSymbolTableRecord
100
AcDbBlockTableRecord
  2
*Paper_Space0
340
26
  0
ENDTAB
  0
ENDSEC
  0
SECTION
  2
BLOCKS
  0
BLOCK
  5
20
100
AcDbEntity
  8
0
100
AcDbBlockBegin
  2
*Model_Space
 70
0
 10
0.0
 20
0.0
 30
0.0
  3
*Model_Space
  1

  0
ENDBLK
  5
21
100
AcDbEntity
  8
0
100
AcDbBlockEnd
  0
BLOCK
  5
1C
100
AcDbEntity
 67
1
  8
0
100
AcDbBlockBegin
  2
*Paper_Space
 70
0
 10
0.0
 20
0.0
 30
0.0
  3
*Paper_Space
  1

  0
ENDBLK
  5
1D
100
AcDbEntity
 67
1
  8
0
100
AcDbBlockEnd
  0
BLOCK
  5
24
100
AcDbEntity
  8
0
100
AcDbBlockBegin
  2
*Paper_Space0
 70
0
 10
0.0
 20
0.0
 30
0.0
  3
*Paper_Space0
  1

  0
ENDBLK
  5
25
100
AcDbEntity
  8
0
100
AcDbBlockEnd
  0
ENDSEC
  0
SECTION
  2
ENTITIES
  0
LINE
5
48
100
AcDbEntity
100
AcDbLine
8
2
62
256
370
-1
6
ByLayer
10
0.0
20
0.0
30
0.0
11
1.0
21
1.39619251498
31
0.0
0
LINE
5
49
100
AcDbEntity
100
AcDbLine
8
2
62
256
370
-1
6
ByLayer
10
1.0
20
1.39619251498
30
0.0
11
2.0
21
2.7919597362
31
0.0
0
LINE
5
50
100
AcDbEntity
100
AcDbLine
8
2
62
256
370
-1
6
ByLayer
10
2.0
20
2.7919597362
30
0.0
11
3.0
21
4.18687649944
31
0.0
0
LINE
5
51
100
AcDbEntity
100
AcDbLine
8
2
62
256
370
-1
6
ByLayer
10
3.0
20
4.18687649944
30
0.0
11
4.0
21
5.58051789953
31
0.0
0
LINE
5
52
100
AcDbEntity
100
AcDbLine
8
2
62
256
370
-1
6
ByLayer
10
4.0
20
5.58051789953
30
0.0
11
5.0
21
6.97245941981
31
0.0
0
LINE
5
53
100
AcDbEntity
100
AcDbLine
8
2
62
256
370
-1
6
ByLayer
10
5.0
20
6.97245941981
30
0.0
11
6.0
21
8.36227706141
31
0.0
0
LINE
5
54
100
AcDbEntity
100
AcDbLine
8
2
62
256
370
-1
6
ByLayer
10
6.0
20
8.36227706141
30
0.0
11
7.0
21
9.74954747241
31
0.0
0
LINE
5
55
100
AcDbEntity
100
AcDbLine
8
2
62
256
370
-1
6
ByLayer
10
7.0
20
9.74954747241
30
0.0
11
8.0
21
11.1338480768
31
0.0
0
LINE
5
56
100
AcDbEntity
100
AcDbLine
8
2
62
256
370
-1
6
ByLayer
10
8.0
20
11.1338480768
30
0.0
11
9.0
21
12.5147572032
31
0.0
0
LINE
5
57
100
AcDbEntity
100
AcDbLine
8
2
62
256
370
-1
6
ByLayer
10
9.0
20
12.5147572032
30
0.0
11
10.0
21
13.8918542134
31
0.0
0
LINE
5
58
100
AcDbEntity
100
AcDbLine
8
2
62
256
370
-1
6
ByLayer
10
10.0
20
13.8918542134
30
0.0
11
11.0
21
15.2647196301
31
0.0
0
LINE
5
59
100
AcDbEntity
100
AcDbLine
8
2
62
256
370
-1
6
ByLayer
10
11.0
20
15.2647196301
30
0.0
11
12.0
21
16.6329352654
31
0.0
0
LINE
5
60
100
AcDbEntity
100
AcDbLine
8
2
62
256
370
-1
6
ByLayer
10
12.0
20
16.6329352654
30
0.0
11
13.0
21
17.9960843475
31
0.0
0
LINE
5
61
100
AcDbEntity
100
AcDbLine
8
2
62
256
370
-1
6
ByLayer
10
13.0
20
17.9960843475
30
0.0
11
14.0
21
19.353751648
31
0.0
0
LINE
5
62
100
AcDbEntity
100
AcDbLine
8
2
62
256
370
-1
6
ByLayer
10
14.0
20
19.353751648
30
0.0
11
15.0
21
20.7055236082
31
0.0
0
LINE
5
63
100
AcDbEntity
100
AcDbLine
8
2
62
256
370
-1
6
ByLayer
10
15.0
20
20.7055236082
30
0.0
11
16.0
21
22.0509884654
31
0.0
0
LINE
5
64
100
AcDbEntity
100
AcDbLine
8
2
62
256
370
-1
6
ByLayer
10
16.0
20
22.0509884654
30
0.0
11
17.0
21
23.3897363778
31
0.0
0
LINE
5
65
100
AcDbEntity
100
AcDbLine
8
2
62
256
370
-1
6
ByLayer
10
17.0
20
23.3897363778
30
0.0
11
18.0
21
24.72135955
31
0.0
0
LINE
5
66
100
AcDbEntity
100
AcDbLine
8
2
62
256
370
-1
6
ByLayer
10
18.0
20
24.72135955
30
0.0
11
19.0
21
26.0454523566
31
0.0
0
LINE
5
67
100
AcDbEntity
100
AcDbLine
8
2
62
256
370
-1
6
ByLayer
10
19.0
20
26.0454523566
30
0.0
11
20.0
21
27.3616114661
31
0.0
0
LINE
5
68
100
AcDbEntity
100
AcDbLine
8
2
62
256
370
-1
6
ByLayer
10
20.0
20
27.3616114661
30
0.0
11
21.0
21
28.6694359636
31
0.0
0
LINE
5
69
100
AcDbEntity
100
AcDbLine
8
2
62
256
370
-1
6
ByLayer
10
21.0
20
28.6694359636
30
0.0
11
22.0
21
29.9685274733
31
0.0
0
LINE
5
70
100
AcDbEntity
100
AcDbLine
8
2
62
256
370
-1
6
ByLayer
10
22.0
20
29.9685274733
30
0.0
11
23.0
21
31.2584902791
31
0.0
0
LINE
5
71
100
AcDbEntity
100
AcDbLine
8
2
62
256
370
-1
6
ByLayer
10
23.0
20
31.2584902791
30
0.0
11
24.0
21
32.5389314461
31
0.0
0
LINE
5
72
100
AcDbEntity
100
AcDbLine
8
2
62
256
370
-1
6
ByLayer
10
24.0
20
32.5389314461
30
0.0
11
25.0
21
33.8094609393
31
0.0
0
LINE
5
73
100
AcDbEntity
100
AcDbLine
8
2
62
256
370
-1
6
ByLayer
10
25.0
20
33.8094609393
30
0.0
11
26.0
21
35.0696917431
31
0.0
0
LINE
5
74
100
AcDbEntity
100
AcDbLine
8
2
62
256
370
-1
6
ByLayer
10
26.0
20
35.0696917431
30
0.0
11
27.0
21
36.3192399792
31
0.0
0
LINE
5
75
100
AcDbEntity
100
AcDbLine
8
2
62
256
370
-1
6
ByLayer
10
27.0
20
36.3192399792
30
0.0
11
28.0
21
37.5577250229
31
0.0
0
LINE
5
76
100
AcDbEntity
100
AcDbLine
8
2
62
256
370
-1
6
ByLayer
10
28.0
20
37.5577250229
30
0.0
11
29.0
21
38.7847696197
31
0.0
0
LINE
5
77
100
AcDbEntity
100
AcDbLine
8
2
62
256
370
-1
6
ByLayer
10
29.0
20
38.7847696197
30
0.0
11
30.0
21
40.0
31
0.0
0
LINE
5
78
100
AcDbEntity
100
AcDbLine
8
2
62
256
370
-1
6
ByLayer
10
30.0
20
40.0
30
0.0
11
31.0
21
41.2030459928
31
0.0
0
LINE
5
79
100
AcDbEntity
100
AcDbLine
8
2
62
256
370
-1
6
ByLayer
10
31.0
20
41.2030459928
30
0.0
11
32.0
21
42.3935411387
31
0.0
0
LINE
5
80
100
AcDbEntity
100
AcDbLine
8
2
62
256
370
-1
6
ByLayer
10
32.0
20
42.3935411387
30
0.0
11
33.0
21
43.5711228012
31
0.0
0
LINE
5
81
100
AcDbEntity
100
AcDbLine
8
2
62
256
370
-1
6
ByLayer
10
33.0
20
43.5711228012
30
0.0
11
34.0
21
44.7354322777
31
0.0
0
LINE
5
82
100
AcDbEntity
100
AcDbLine
8
2
62
256
370
-1
6
ByLayer
10
34.0
20
44.7354322777
30
0.0
11
35.0
21
45.8861149081
31
0.0
0
LINE
5
83
100
AcDbEntity
100
AcDbLine
8
2
62
256
370
-1
6
ByLayer
10
35.0
20
45.8861149081
30
0.0
11
36.0
21
47.0228201834
31
0.0
0
LINE
5
84
100
AcDbEntity
100
AcDbLine
8
2
62
256
370
-1
6
ByLayer
10
36.0
20
47.0228201834
30
0.0
11
37.0
21
48.1452018522
31
0.0
0
LINE
5
85
100
AcDbEntity
100
AcDbLine
8
2
62
256
370
-1
6
ByLayer
10
37.0
20
48.1452018522
30
0.0
11
38.0
21
49.2529180261
31
0.0
0
LINE
5
86
100
AcDbEntity
100
AcDbLine
8
2
62
256
370
-1
6
ByLayer
10
38.0
20
49.2529180261
30
0.0
11
39.0
21
50.345631284
31
0.0
0
LINE
5
87
100
AcDbEntity
100
AcDbLine
8
2
62
256
370
-1
6
ByLayer
10
39.0
20
50.345631284
30
0.0
11
40.0
21
51.4230087749
31
0.0
0
LINE
5
88
100
AcDbEntity
100
AcDbLine
8
2
62
256
370
-1
6
ByLayer
10
40.0
20
51.4230087749
30
0.0
11
41.0
21
52.4847223192
31
0.0
0
LINE
5
89
100
AcDbEntity
100
AcDbLine
8
2
62
256
370
-1
6
ByLayer
10
41.0
20
52.4847223192
30
0.0
11
42.0
21
53.5304485087
31
0.0
0
LINE
5
90
100
AcDbEntity
100
AcDbLine
8
2
62
256
370
-1
6
ByLayer
10
42.0
20
53.5304485087
30
0.0
11
43.0
21
54.559868805
31
0.0
0
LINE
5
91
100
AcDbEntity
100
AcDbLine
8
2
62
256
370
-1
6
ByLayer
10
43.0
20
54.559868805
30
0.0
11
44.0
21
55.5726696367
31
0.0
0
LINE
5
92
100
AcDbEntity
100
AcDbLine
8
2
62
256
370
-1
6
ByLayer
10
44.0
20
55.5726696367
30
0.0
11
45.0
21
56.5685424949
31
0.0
0
LINE
5
93
100
AcDbEntity
100
AcDbLine
8
2
62
256
370
-1
6
ByLayer
10
45.0
20
56.5685424949
30
0.0
11
46.0
21
57.5471840271
31
0.0
0
LINE
5
94
100
AcDbEntity
100
AcDbLine
8
2
62
256
370
-1
6
ByLayer
10
46.0
20
57.5471840271
30
0.0
11
47.0
21
58.5082961295
31
0.0
0
LINE
5
95
100
AcDbEntity
100
AcDbLine
8
2
62
256
370
-1
6
ByLayer
10
47.0
20
58.5082961295
30
0.0
11
48.0
21
59.4515860382
31
0.0
0
LINE
5
96
100
AcDbEntity
100
AcDbLine
8
2
62
256
370
-1
6
ByLayer
10
48.0
20
59.4515860382
30
0.0
11
49.0
21
60.3767664178
31
0.0
0
LINE
5
97
100
AcDbEntity
100
AcDbLine
8
2
62
256
370
-1
6
ByLayer
10
49.0
20
60.3767664178
30
0.0
11
50.0
21
61.2835554495
31
0.0
0
LINE
5
98
100
AcDbEntity
100
AcDbLine
8
2
62
256
370
-1
6
ByLayer
10
50.0
20
61.2835554495
30
0.0
11
51.0
21
62.1716769166
31
0.0
0
LINE
5
99
100
AcDbEntity
100
AcDbLine
8
2
62
256
370
-1
6
ByLayer
10
51.0
20
62.1716769166
30
0.0
11
52.0
21
63.0408602885
31
0.0
0
LINE
5
100
100
AcDbEntity
100
AcDbLine
8
2
62
256
370
-1
6
ByLayer
10
52.0
20
63.0408602885
30
0.0
11
53.0
21
63.8908408038
31
0.0
0
LINE
5
101
100
AcDbEntity
100
AcDbLine
8
2
62
256
370
-1
6
ByLayer
10
53.0
20
63.8908408038
30
0.0
11
54.0
21
64.72135955
31
0.0
0
LINE
5
102
100
AcDbEntity
100
AcDbLine
8
2
62
256
370
-1
6
ByLayer
10
54.0
20
64.72135955
30
0.0
11
55.0
21
65.5321635431
31
0.0
0
LINE
5
103
100
AcDbEntity
100
AcDbLine
8
2
62
256
370
-1
6
ByLayer
10
55.0
20
65.5321635431
30
0.0
11
56.0
21
66.3230058044
31
0.0
0
LINE
5
104
100
AcDbEntity
100
AcDbLine
8
2
62
256
370
-1
6
ByLayer
10
56.0
20
66.3230058044
30
0.0
11
57.0
21
67.0936454356
31
0.0
0
LINE
5
105
100
AcDbEntity
100
AcDbLine
8
2
62
256
370
-1
6
ByLayer
10
57.0
20
67.0936454356
30
0.0
11
58.0
21
67.8438476925
31
0.0
0
LINE
5
106
100
AcDbEntity
100
AcDbLine
8
2
62
256
370
-1
6
ByLayer
10
58.0
20
67.8438476925
30
0.0
11
59.0
21
68.5733840562
31
0.0
0
LINE
5
107
100
AcDbEntity
100
AcDbLine
8
2
62
256
370
-1
6
ByLayer
10
59.0
20
68.5733840562
30
0.0
11
60.0
21
69.2820323028
31
0.0
0
LINE
5
108
100
AcDbEntity
100
AcDbLine
8
2
62
256
370
-1
6
ByLayer
10
60.0
20
69.2820323028
30
0.0
11
61.0
21
69.9695765712
31
0.0
0
LINE
5
109
100
AcDbEntity
100
AcDbLine
8
2
62
256
370
-1
6
ByLayer
10
61.0
20
69.9695765712
30
0.0
11
62.0
21
70.6358074287
31
0.0
0
LINE
5
110
100
AcDbEntity
100
AcDbLine
8
2
62
256
370
-1
6
ByLayer
10
62.0
20
70.6358074287
30
0.0
11
63.0
21
71.2805219351
31
0.0
0
LINE
5
111
100
AcDbEntity
100
AcDbLine
8
2
62
256
370
-1
6
ByLayer
10
63.0
20
71.2805219351
30
0.0
11
64.0
21
71.9035237039
31
0.0
0
LINE
5
112
100
AcDbEntity
100
AcDbLine
8
2
62
256
370
-1
6
ByLayer
10
64.0
20
71.9035237039
30
0.0
11
65.0
21
72.5046229629
31
0.0
0
LINE
5
113
100
AcDbEntity
100
AcDbLine
8
2
62
256
370
-1
6
ByLayer
10
65.0
20
72.5046229629
30
0.0
11
66.0
21
73.0836366114
31
0.0
0
LINE
5
114
100
AcDbEntity
100
AcDbLine
8
2
62
256
370
-1
6
ByLayer
10
66.0
20
73.0836366114
30
0.0
11
67.0
21
73.6403882762
31
0.0
0
LINE
5
115
100
AcDbEntity
100
AcDbLine
8
2
62
256
370
-1
6
ByLayer
10
67.0
20
73.6403882762
30
0.0
11
68.0
21
74.1747083653
31
0.0
0
LINE
5
116
100
AcDbEntity
100
AcDbLine
8
2
62
256
370
-1
6
ByLayer
10
68.0
20
74.1747083653
30
0.0
11
69.0
21
74.6864341198
31
0.0
0
LINE
5
117
100
AcDbEntity
100
AcDbLine
8
2
62
256
370
-1
6
ByLayer
10
69.0
20
74.6864341198
30
0.0
11
70.0
21
75.1754096629
31
0.0
0
LINE
5
118
100
AcDbEntity
100
AcDbLine
8
2
62
256
370
-1
6
ByLayer
10
70.0
20
75.1754096629
30
0.0
11
71.0
21
75.6414860479
31
0.0
0
LINE
5
119
100
AcDbEntity
100
AcDbLine
8
2
62
256
370
-1
6
ByLayer
10
71.0
20
75.6414860479
30
0.0
11
72.0
21
76.0845213036
31
0.0
0
LINE
5
120
100
AcDbEntity
100
AcDbLine
8
2
62
256
370
-1
6
ByLayer
10
72.0
20
76.0845213036
30
0.0
11
73.0
21
76.504380477
31
0.0
0
LINE
5
121
100
AcDbEntity
100
AcDbLine
8
2
62
256
370
-1
6
ByLayer
10
73.0
20
76.504380477
30
0.0
11
74.0
21
76.9009356751
31
0.0
0
LINE
5
122
100
AcDbEntity
100
AcDbLine
8
2
62
256
370
-1
6
ByLayer
10
74.0
20
76.9009356751
30
0.0
11
75.0
21
77.2740661031
31
0.0
0
LINE
5
123
100
AcDbEntity
100
AcDbLine
8
2
62
256
370
-1
6
ByLayer
10
75.0
20
77.2740661031
30
0.0
11
76.0
21
77.6236581021
31
0.0
0
LINE
5
124
100
AcDbEntity
100
AcDbLine
8
2
62
256
370
-1
6
ByLayer
10
76.0
20
77.6236581021
30
0.0
11
77.0
21
77.9496051828
31
0.0
0
LINE
5
125
100
AcDbEntity
100
AcDbLine
8
2
62
256
370
-1
6
ByLayer
10
77.0
20
77.9496051828
30
0.0
11
78.0
21
78.2518080587
31
0.0
0
LINE
5
126
100
AcDbEntity
100
AcDbLine
8
2
62
256
370
-1
6
ByLayer
10
78.0
20
78.2518080587
30
0.0
11
79.0
21
78.5301746758
31
0.0
0
LINE
5
127
100
AcDbEntity
100
AcDbLine
8
2
62
256
370
-1
6
ByLayer
10
79.0
20
78.5301746758
30
0.0
11
80.0
21
78.784620241
31
0.0
0
LINE
5
128
100
AcDbEntity
100
AcDbLine
8
2
62
256
370
-1
6
ByLayer
10
80.0
20
78.784620241
30
0.0
11
81.0
21
79.0150672476
31
0.0
0
LINE
5
129
100
AcDbEntity
100
AcDbLine
8
2
62
256
370
-1
6
ByLayer
10
81.0
20
79.0150672476
30
0.0
11
82.0
21
79.2214454993
31
0.0
0
LINE
5
130
100
AcDbEntity
100
AcDbLine
8
2
62
256
370
-1
6
ByLayer
10
82.0
20
79.2214454993
30
0.0
11
83.0
21
79.4036921313
31
0.0
0
LINE
5
131
100
AcDbEntity
100
AcDbLine
8
2
62
256
370
-1
6
ByLayer
10
83.0
20
79.4036921313
30
0.0
11
84.0
21
79.5617516295
31
0.0
0
LINE
5
132
100
AcDbEntity
100
AcDbLine
8
2
62
256
370
-1
6
ByLayer
10
84.0
20
79.5617516295
30
0.0
11
85.0
21
79.6955758473
31
0.0
0
LINE
5
133
100
AcDbEntity
100
AcDbLine
8
2
62
256
370
-1
6
ByLayer
10
85.0
20
79.6955758473
30
0.0
11
86.0
21
79.8051240208
31
0.0
0
LINE
5
134
100
AcDbEntity
100
AcDbLine
8
2
62
256
370
-1
6
ByLayer
10
86.0
20
79.8051240208
30
0.0
11
87.0
21
79.8903627804
31
0.0
0
LINE
5
135
100
AcDbEntity
100
AcDbLine
8
2
62
256
370
-1
6
ByLayer
10
87.0
20
79.8903627804
30
0.0
11
88.0
21
79.9512661615
31
0.0
0
LINE
5
136
100
AcDbEntity
100
AcDbLine
8
2
62
256
370
-1
6
ByLayer
10
88.0
20
79.9512661615
30
0.0
11
89.0
21
79.9878156125
31
0.0
0
LINE
5
137
100
AcDbEntity
100
AcDbLine
8
2
62
256
370
-1
6
ByLayer
10
89.0
20
79.9878156125
30
0.0
11
90.0
21
80.0
31
0.0
0
LINE
5
138
100
AcDbEntity
100
AcDbLine
8
2
62
256
370
-1
6
ByLayer
10
90.0
20
80.0
30
0.0
11
91.0
21
79.9878156125
31
0.0
0
LINE
5
139
100
AcDbEntity
100
AcDbLine
8
2
62
256
370
-1
6
ByLayer
10
91.0
20
79.9878156125
30
0.0
11
92.0
21
79.9512661615
31
0.0
0
LINE
5
140
100
AcDbEntity
100
AcDbLine
8
2
62
256
370
-1
6
ByLayer
10
92.0
20
79.9512661615
30
0.0
11
93.0
21
79.8903627804
31
0.0
0
LINE
5
141
100
AcDbEntity
100
AcDbLine
8
2
62
256
370
-1
6
ByLayer
10
93.0
20
79.8903627804
30
0.0
11
94.0
21
79.8051240208
31
0.0
0
LINE
5
142
100
AcDbEntity
100
AcDbLine
8
2
62
256
370
-1
6
ByLayer
10
94.0
20
79.8051240208
30
0.0
11
95.0
21
79.6955758473
31
0.0
0
LINE
5
143
100
AcDbEntity
100
AcDbLine
8
2
62
256
370
-1
6
ByLayer
10
95.0
20
79.6955758473
30
0.0
11
96.0
21
79.5617516295
31
0.0
0
LINE
5
144
100
AcDbEntity
100
AcDbLine
8
2
62
256
370
-1
6
ByLayer
10
96.0
20
79.5617516295
30
0.0
11
97.0
21
79.4036921313
31
0.0
0
LINE
5
145
100
AcDbEntity
100
AcDbLine
8
2
62
256
370
-1
6
ByLayer
10
97.0
20
79.4036921313
30
0.0
11
98.0
21
79.2214454993
31
0.0
0
LINE
5
146
100
AcDbEntity
100
AcDbLine
8
2
62
256
370
-1
6
ByLayer
10
98.0
20
79.2214454993
30
0.0
11
99.0
21
79.0150672476
31
0.0
0
LINE
5
147
100
AcDbEntity
100
AcDbLine
8
2
62
256
370
-1
6
ByLayer
10
99.0
20
79.0150672476
30
0.0
11
100.0
21
78.784620241
31
0.0
0
LINE
5
148
100
AcDbEntity
100
AcDbLine
8
2
62
256
370
-1
6
ByLayer
10
100.0
20
78.784620241
30
0.0
11
101.0
21
78.5301746758
31
0.0
0
LINE
5
149
100
AcDbEntity
100
AcDbLine
8
2
62
256
370
-1
6
ByLayer
10
101.0
20
78.5301746758
30
0.0
11
102.0
21
78.2518080587
31
0.0
0
LINE
5
150
100
AcDbEntity
100
AcDbLine
8
2
62
256
370
-1
6
ByLayer
10
102.0
20
78.2518080587
30
0.0
11
103.0
21
77.9496051828
31
0.0
0
LINE
5
151
100
AcDbEntity
100
AcDbLine
8
2
62
256
370
-1
6
ByLayer
10
103.0
20
77.9496051828
30
0.0
11
104.0
21
77.6236581021
31
0.0
0
LINE
5
152
100
AcDbEntity
100
AcDbLine
8
2
62
256
370
-1
6
ByLayer
10
104.0
20
77.6236581021
30
0.0
11
105.0
21
77.2740661031
31
0.0
0
LINE
5
153
100
AcDbEntity
100
AcDbLine
8
2
62
256
370
-1
6
ByLayer
10
105.0
20
77.2740661031
30
0.0
11
106.0
21
76.9009356751
31
0.0
0
LINE
5
154
100
AcDbEntity
100
AcDbLine
8
2
62
256
370
-1
6
ByLayer
10
106.0
20
76.9009356751
30
0.0
11
107.0
21
76.504380477
31
0.0
0
LINE
5
155
100
AcDbEntity
100
AcDbLine
8
2
62
256
370
-1
6
ByLayer
10
107.0
20
76.504380477
30
0.0
11
108.0
21
76.0845213036
31
0.0
0
LINE
5
156
100
AcDbEntity
100
AcDbLine
8
2
62
256
370
-1
6
ByLayer
10
108.0
20
76.0845213036
30
0.0
11
109.0
21
75.6414860479
31
0.0
0
LINE
5
157
100
AcDbEntity
100
AcDbLine
8
2
62
256
370
-1
6
ByLayer
10
109.0
20
75.6414860479
30
0.0
11
110.0
21
75.1754096629
31
0.0
0
LINE
5
158
100
AcDbEntity
100
AcDbLine
8
2
62
256
370
-1
6
ByLayer
10
110.0
20
75.1754096629
30
0.0
11
111.0
21
74.6864341198
31
0.0
0
LINE
5
159
100
AcDbEntity
100
AcDbLine
8
2
62
256
370
-1
6
ByLayer
10
111.0
20
74.6864341198
30
0.0
11
112.0
21
74.1747083653
31
0.0
0
LINE
5
160
100
AcDbEntity
100
AcDbLine
8
2
62
256
370
-1
6
ByLayer
10
112.0
20
74.1747083653
30
0.0
11
113.0
21
73.6403882762
31
0.0
0
LINE
5
161
100
AcDbEntity
100
AcDbLine
8
2
62
256
370
-1
6
ByLayer
10
113.0
20
73.6403882762
30
0.0
11
114.0
21
73.0836366114
31
0.0
0
LINE
5
162
100
AcDbEntity
100
AcDbLine
8
2
62
256
370
-1
6
ByLayer
10
114.0
20
73.0836366114
30
0.0
11
115.0
21
72.5046229629
31
0.0
0
LINE
5
163
100
AcDbEntity
100
AcDbLine
8
2
62
256
370
-1
6
ByLayer
10
115.0
20
72.5046229629
30
0.0
11
116.0
21
71.9035237039
31
0.0
0
LINE
5
164
100
AcDbEntity
100
AcDbLine
8
2
62
256
370
-1
6
ByLayer
10
116.0
20
71.9035237039
30
0.0
11
117.0
21
71.2805219351
31
0.0
0
LINE
5
165
100
AcDbEntity
100
AcDbLine
8
2
62
256
370
-1
6
ByLayer
10
117.0
20
71.2805219351
30
0.0
11
118.0
21
70.6358074287
31
0.0
0
LINE
5
166
100
AcDbEntity
100
AcDbLine
8
2
62
256
370
-1
6
ByLayer
10
118.0
20
70.6358074287
30
0.0
11
119.0
21
69.9695765712
31
0.0
0
LINE
5
167
100
AcDbEntity
100
AcDbLine
8
2
62
256
370
-1
6
ByLayer
10
119.0
20
69.9695765712
30
0.0
11
120.0
21
69.2820323028
31
0.0
0
LINE
5
168
100
AcDbEntity
100
AcDbLine
8
2
62
256
370
-1
6
ByLayer
10
120.0
20
69.2820323028
30
0.0
11
121.0
21
68.5733840562
31
0.0
0
LINE
5
169
100
AcDbEntity
100
AcDbLine
8
2
62
256
370
-1
6
ByLayer
10
121.0
20
68.5733840562
30
0.0
11
122.0
21
67.8438476925
31
0.0
0
LINE
5
170
100
AcDbEntity
100
AcDbLine
8
2
62
256
370
-1
6
ByLayer
10
122.0
20
67.8438476925
30
0.0
11
123.0
21
67.0936454356
31
0.0
0
LINE
5
171
100
AcDbEntity
100
AcDbLine
8
2
62
256
370
-1
6
ByLayer
10
123.0
20
67.0936454356
30
0.0
11
124.0
21
66.3230058044
31
0.0
0
LINE
5
172
100
AcDbEntity
100
AcDbLine
8
2
62
256
370
-1
6
ByLayer
10
124.0
20
66.3230058044
30
0.0
11
125.0
21
65.5321635431
31
0.0
0
LINE
5
173
100
AcDbEntity
100
AcDbLine
8
2
62
256
370
-1
6
ByLayer
10
125.0
20
65.5321635431
30
0.0
11
126.0
21
64.72135955
31
0.0
0
LINE
5
174
100
AcDbEntity
100
AcDbLine
8
2
62
256
370
-1
6
ByLayer
10
126.0
20
64.72135955
30
0.0
11
127.0
21
63.8908408038
31
0.0
0
LINE
5
175
100
AcDbEntity
100
AcDbLine
8
2
62
256
370
-1
6
ByLayer
10
127.0
20
63.8908408038
30
0.0
11
128.0
21
63.0408602885
31
0.0
0
LINE
5
176
100
AcDbEntity
100
AcDbLine
8
2
62
256
370
-1
6
ByLayer
10
128.0
20
63.0408602885
30
0.0
11
129.0
21
62.1716769166
31
0.0
0
LINE
5
177
100
AcDbEntity
100
AcDbLine
8
2
62
256
370
-1
6
ByLayer
10
129.0
20
62.1716769166
30
0.0
11
130.0
21
61.2835554495
31
0.0
0
LINE
5
178
100
AcDbEntity
100
AcDbLine
8
2
62
256
370
-1
6
ByLayer
10
130.0
20
61.2835554495
30
0.0
11
131.0
21
60.3767664178
31
0.0
0
LINE
5
179
100
AcDbEntity
100
AcDbLine
8
2
62
256
370
-1
6
ByLayer
10
131.0
20
60.3767664178
30
0.0
11
132.0
21
59.4515860382
31
0.0
0
LINE
5
180
100
AcDbEntity
100
AcDbLine
8
2
62
256
370
-1
6
ByLayer
10
132.0
20
59.4515860382
30
0.0
11
133.0
21
58.5082961295
31
0.0
0
LINE
5
181
100
AcDbEntity
100
AcDbLine
8
2
62
256
370
-1
6
ByLayer
10
133.0
20
58.5082961295
30
0.0
11
134.0
21
57.5471840271
31
0.0
0
LINE
5
182
100
AcDbEntity
100
AcDbLine
8
2
62
256
370
-1
6
ByLayer
10
134.0
20
57.5471840271
30
0.0
11
135.0
21
56.5685424949
31
0.0
0
LINE
5
183
100
AcDbEntity
100
AcDbLine
8
2
62
256
370
-1
6
ByLayer
10
135.0
20
56.5685424949
30
0.0
11
136.0
21
55.5726696367
31
0.0
0
LINE
5
184
100
AcDbEntity
100
AcDbLine
8
2
62
256
370
-1
6
ByLayer
10
136.0
20
55.5726696367
30
0.0
11
137.0
21
54.559868805
31
0.0
0
LINE
5
185
100
AcDbEntity
100
AcDbLine
8
2
62
256
370
-1
6
ByLayer
10
137.0
20
54.559868805
30
0.0
11
138.0
21
53.5304485087
31
0.0
0
LINE
5
186
100
AcDbEntity
100
AcDbLine
8
2
62
256
370
-1
6
ByLayer
10
138.0
20
53.5304485087
30
0.0
11
139.0
21
52.4847223192
31
0.0
0
LINE
5
187
100
AcDbEntity
100
AcDbLine
8
2
62
256
370
-1
6
ByLayer
10
139.0
20
52.4847223192
30
0.0
11
140.0
21
51.4230087749
31
0.0
0
LINE
5
188
100
AcDbEntity
100
AcDbLine
8
2
62
256
370
-1
6
ByLayer
10
140.0
20
51.4230087749
30
0.0
11
141.0
21
50.345631284
31
0.0
0
LINE
5
189
100
AcDbEntity
100
AcDbLine
8
2
62
256
370
-1
6
ByLayer
10
141.0
20
50.345631284
30
0.0
11
142.0
21
49.2529180261
31
0.0
0
LINE
5
190
100
AcDbEntity
100
AcDbLine
8
2
62
256
370
-1
6
ByLayer
10
142.0
20
49.2529180261
30
0.0
11
143.0
21
48.1452018522
31
0.0
0
LINE
5
191
100
AcDbEntity
100
AcDbLine
8
2
62
256
370
-1
6
ByLayer
10
143.0
20
48.1452018522
30
0.0
11
144.0
21
47.0228201834
31
0.0
0
LINE
5
192
100
AcDbEntity
100
AcDbLine
8
2
62
256
370
-1
6
ByLayer
10
144.0
20
47.0228201834
30
0.0
11
145.0
21
45.8861149081
31
0.0
0
LINE
5
193
100
AcDbEntity
100
AcDbLine
8
2
62
256
370
-1
6
ByLayer
10
145.0
20
45.8861149081
30
0.0
11
146.0
21
44.7354322777
31
0.0
0
LINE
5
194
100
AcDbEntity
100
AcDbLine
8
2
62
256
370
-1
6
ByLayer
10
146.0
20
44.7354322777
30
0.0
11
147.0
21
43.5711228012
31
0.0
0
LINE
5
195
100
AcDbEntity
100
AcDbLine
8
2
62
256
370
-1
6
ByLayer
10
147.0
20
43.5711228012
30
0.0
11
148.0
21
42.3935411387
31
0.0
0
LINE
5
196
100
AcDbEntity
100
AcDbLine
8
2
62
256
370
-1
6
ByLayer
10
148.0
20
42.3935411387
30
0.0
11
149.0
21
41.2030459928
31
0.0
0
LINE
5
197
100
AcDbEntity
100
AcDbLine
8
2
62
256
370
-1
6
ByLayer
10
149.0
20
41.2030459928
30
0.0
11
150.0
21
40.0
31
0.0
0
LINE
5
198
100
AcDbEntity
100
AcDbLine
8
2
62
256
370
-1
6
ByLayer
10
150.0
20
40.0
30
0.0
11
151.0
21
38.7847696197
31
0.0
0
LINE
5
199
100
AcDbEntity
100
AcDbLine
8
2
62
256
370
-1
6
ByLayer
10
151.0
20
38.7847696197
30
0.0
11
152.0
21
37.5577250229
31
0.0
0
LINE
5
200
100
AcDbEntity
100
AcDbLine
8
2
62
256
370
-1
6
ByLayer
10
152.0
20
37.5577250229
30
0.0
11
153.0
21
36.3192399792
31
0.0
0
LINE
5
201
100
AcDbEntity
100
AcDbLine
8
2
62
256
370
-1
6
ByLayer
10
153.0
20
36.3192399792
30
0.0
11
154.0
21
35.0696917431
31
0.0
0
LINE
5
202
100
AcDbEntity
100
AcDbLine
8
2
62
256
370
-1
6
ByLayer
10
154.0
20
35.0696917431
30
0.0
11
155.0
21
33.8094609393
31
0.0
0
LINE
5
203
100
AcDbEntity
100
AcDbLine
8
2
62
256
370
-1
6
ByLayer
10
155.0
20
33.8094609393
30
0.0
11
156.0
21
32.5389314461
31
0.0
0
LINE
5
204
100
AcDbEntity
100
AcDbLine
8
2
62
256
370
-1
6
ByLayer
10
156.0
20
32.5389314461
30
0.0
11
157.0
21
31.2584902791
31
0.0
0
LINE
5
205
100
AcDbEntity
100
AcDbLine
8
2
62
256
370
-1
6
ByLayer
10
157.0
20
31.2584902791
30
0.0
11
158.0
21
29.9685274733
31
0.0
0
LINE
5
206
100
AcDbEntity
100
AcDbLine
8
2
62
256
370
-1
6
ByLayer
10
158.0
20
29.9685274733
30
0.0
11
159.0
21
28.6694359636
31
0.0
0
LINE
5
207
100
AcDbEntity
100
AcDbLine
8
2
62
256
370
-1
6
ByLayer
10
159.0
20
28.6694359636
30
0.0
11
160.0
21
27.3616114661
31
0.0
0
LINE
5
208
100
AcDbEntity
100
AcDbLine
8
2
62
256
370
-1
6
ByLayer
10
160.0
20
27.3616114661
30
0.0
11
161.0
21
26.0454523566
31
0.0
0
LINE
5
209
100
AcDbEntity
100
AcDbLine
8
2
62
256
370
-1
6
ByLayer
10
161.0
20
26.0454523566
30
0.0
11
162.0
21
24.72135955
31
0.0
0
LINE
5
210
100
AcDbEntity
100
AcDbLine
8
2
62
256
370
-1
6
ByLayer
10
162.0
20
24.72135955
30
0.0
11
163.0
21
23.3897363778
31
0.0
0
LINE
5
211
100
AcDbEntity
100
AcDbLine
8
2
62
256
370
-1
6
ByLayer
10
163.0
20
23.3897363778
30
0.0
11
164.0
21
22.0509884654
31
0.0
0
LINE
5
212
100
AcDbEntity
100
AcDbLine
8
2
62
256
370
-1
6
ByLayer
10
164.0
20
22.0509884654
30
0.0
11
165.0
21
20.7055236082
31
0.0
0
LINE
5
213
100
AcDbEntity
100
AcDbLine
8
2
62
256
370
-1
6
ByLayer
10
165.0
20
20.7055236082
30
0.0
11
166.0
21
19.353751648
31
0.0
0
LINE
5
214
100
AcDbEntity
100
AcDbLine
8
2
62
256
370
-1
6
ByLayer
10
166.0
20
19.353751648
30
0.0
11
167.0
21
17.9960843475
31
0.0
0
LINE
5
215
100
AcDbEntity
100
AcDbLine
8
2
62
256
370
-1
6
ByLayer
10
167.0
20
17.9960843475
30
0.0
11
168.0
21
16.6329352654
31
0.0
0
LINE
5
216
100
AcDbEntity
100
AcDbLine
8
2
62
256
370
-1
6
ByLayer
10
168.0
20
16.6329352654
30
0.0
11
169.0
21
15.2647196301
31
0.0
0
LINE
5
217
100
AcDbEntity
100
AcDbLine
8
2
62
256
370
-1
6
ByLayer
10
169.0
20
15.2647196301
30
0.0
11
170.0
21
13.8918542134
31
0.0
0
LINE
5
218
100
AcDbEntity
100
AcDbLine
8
2
62
256
370
-1
6
ByLayer
10
170.0
20
13.8918542134
30
0.0
11
171.0
21
12.5147572032
31
0.0
0
LINE
5
219
100
AcDbEntity
100
AcDbLine
8
2
62
256
370
-1
6
ByLayer
10
171.0
20
12.5147572032
30
0.0
11
172.0
21
11.1338480768
31
0.0
0
LINE
5
220
100
AcDbEntity
100
AcDbLine
8
2
62
256
370
-1
6
ByLayer
10
172.0
20
11.1338480768
30
0.0
11
173.0
21
9.74954747241
31
0.0
0
LINE
5
221
100
AcDbEntity
100
AcDbLine
8
2
62
256
370
-1
6
ByLayer
10
173.0
20
9.74954747241
30
0.0
11
174.0
21
8.36227706141
31
0.0
0
LINE
5
222
100
AcDbEntity
100
AcDbLine
8
2
62
256
370
-1
6
ByLayer
10
174.0
20
8.36227706141
30
0.0
11
175.0
21
6.97245941981
31
0.0
0
LINE
5
223
100
AcDbEntity
100
AcDbLine
8
2
62
256
370
-1
6
ByLayer
10
175.0
20
6.97245941981
30
0.0
11
176.0
21
5.58051789953
31
0.0
0
LINE
5
224
100
AcDbEntity
100
AcDbLine
8
2
62
256
370
-1
6
ByLayer
10
176.0
20
5.58051789953
30
0.0
11
177.0
21
4.18687649944
31
0.0
0
LINE
5
225
100
AcDbEntity
100
AcDbLine
8
2
62
256
370
-1
6
ByLayer
10
177.0
20
4.18687649944
30
0.0
11
178.0
21
2.7919597362
31
0.0
0
LINE
5
226
100
AcDbEntity
100
AcDbLine
8
2
62
256
370
-1
6
ByLayer
10
178.0
20
2.7919597362
30
0.0
11
179.0
21
1.39619251498
31
0.0
0
LINE
5
227
100
AcDbEntity
100
AcDbLine
8
2
62
256
370
-1
6
ByLayer
10
179.0
20
1.39619251498
30
0.0
11
180.0
21
9.79685083058e-15
31
0.0
0
LINE
5
228
100
AcDbEntity
100
AcDbLine
8
2
62
256
370
-1
6
ByLayer
10
180.0
20
9.79685083058e-15
30
0.0
11
181.0
21
-1.39619251498
31
0.0
0
LINE
5
229
100
AcDbEntity
100
AcDbLine
8
2
62
256
370
-1
6
ByLayer
10
181.0
20
-1.39619251498
30
0.0
11
182.0
21
-2.7919597362
31
0.0
0
LINE
5
230
100
AcDbEntity
100
AcDbLine
8
2
62
256
370
-1
6
ByLayer
10
182.0
20
-2.7919597362
30
0.0
11
183.0
21
-4.18687649944
31
0.0
0
LINE
5
231
100
AcDbEntity
100
AcDbLine
8
2
62
256
370
-1
6
ByLayer
10
183.0
20
-4.18687649944
30
0.0
11
184.0
21
-5.58051789953
31
0.0
0
LINE
5
232
100
AcDbEntity
100
AcDbLine
8
2
62
256
370
-1
6
ByLayer
10
184.0
20
-5.58051789953
30
0.0
11
185.0
21
-6.97245941981
31
0.0
0
LINE
5
233
100
AcDbEntity
100
AcDbLine
8
2
62
256
370
-1
6
ByLayer
10
185.0
20
-6.97245941981
30
0.0
11
186.0
21
-8.36227706141
31
0.0
0
LINE
5
234
100
AcDbEntity
100
AcDbLine
8
2
62
256
370
-1
6
ByLayer
10
186.0
20
-8.36227706141
30
0.0
11
187.0
21
-9.74954747241
31
0.0
0
LINE
5
235
100
AcDbEntity
100
AcDbLine
8
2
62
256
370
-1
6
ByLayer
10
187.0
20
-9.74954747241
30
0.0
11
188.0
21
-11.1338480768
31
0.0
0
LINE
5
236
100
AcDbEntity
100
AcDbLine
8
2
62
256
370
-1
6
ByLayer
10
188.0
20
-11.1338480768
30
0.0
11
189.0
21
-12.5147572032
31
0.0
0
LINE
5
237
100
AcDbEntity
100
AcDbLine
8
2
62
256
370
-1
6
ByLayer
10
189.0
20
-12.5147572032
30
0.0
11
190.0
21
-13.8918542134
31
0.0
0
LINE
5
238
100
AcDbEntity
100
AcDbLine
8
2
62
256
370
-1
6
ByLayer
10
190.0
20
-13.8918542134
30
0.0
11
191.0
21
-15.2647196301
31
0.0
0
LINE
5
239
100
AcDbEntity
100
AcDbLine
8
2
62
256
370
-1
6
ByLayer
10
191.0
20
-15.2647196301
30
0.0
11
192.0
21
-16.6329352654
31
0.0
0
LINE
5
240
100
AcDbEntity
100
AcDbLine
8
2
62
256
370
-1
6
ByLayer
10
192.0
20
-16.6329352654
30
0.0
11
193.0
21
-17.9960843475
31
0.0
0
LINE
5
241
100
AcDbEntity
100
AcDbLine
8
2
62
256
370
-1
6
ByLayer
10
193.0
20
-17.9960843475
30
0.0
11
194.0
21
-19.353751648
31
0.0
0
LINE
5
242
100
AcDbEntity
100
AcDbLine
8
2
62
256
370
-1
6
ByLayer
10
194.0
20
-19.353751648
30
0.0
11
195.0
21
-20.7055236082
31
0.0
0
LINE
5
243
100
AcDbEntity
100
AcDbLine
8
2
62
256
370
-1
6
ByLayer
10
195.0
20
-20.7055236082
30
0.0
11
196.0
21
-22.0509884654
31
0.0
0
LINE
5
244
100
AcDbEntity
100
AcDbLine
8
2
62
256
370
-1
6
ByLayer
10
196.0
20
-22.0509884654
30
0.0
11
197.0
21
-23.3897363778
31
0.0
0
LINE
5
245
100
AcDbEntity
100
AcDbLine
8
2
62
256
370
-1
6
ByLayer
10
197.0
20
-23.3897363778
30
0.0
11
198.0
21
-24.72135955
31
0.0
0
LINE
5
246
100
AcDbEntity
100
AcDbLine
8
2
62
256
370
-1
6
ByLayer
10
198.0
20
-24.72135955
30
0.0
11
199.0
21
-26.0454523566
31
0.0
0
LINE
5
247
100
AcDbEntity
100
AcDbLine
8
2
62
256
370
-1
6
ByLayer
10
199.0
20
-26.0454523566
30
0.0
11
200.0
21
-27.3616114661
31
0.0
0
LINE
5
248
100
AcDbEntity
100
AcDbLine
8
2
62
256
370
-1
6
ByLayer
10
200.0
20
-27.3616114661
30
0.0
11
201.0
21
-28.6694359636
31
0.0
0
LINE
5
249
100
AcDbEntity
100
AcDbLine
8
2
62
256
370
-1
6
ByLayer
10
201.0
20
-28.6694359636
30
0.0
11
202.0
21
-29.9685274733
31
0.0
0
LINE
5
250
100
AcDbEntity
100
AcDbLine
8
2
62
256
370
-1
6
ByLayer
10
202.0
20
-29.9685274733
30
0.0
11
203.0
21
-31.2584902791
31
0.0
0
LINE
5
251
100
AcDbEntity
100
AcDbLine
8
2
62
256
370
-1
6
ByLayer
10
203.0
20
-31.2584902791
30
0.0
11
204.0
21
-32.5389314461
31
0.0
0
LINE
5
252
100
AcDbEntity
100
AcDbLine
8
2
62
256
370
-1
6
ByLayer
10
204.0
20
-32.5389314461
30
0.0
11
205.0
21
-33.8094609393
31
0.0
0
LINE
5
253
100
AcDbEntity
100
AcDbLine
8
2
62
256
370
-1
6
ByLayer
10
205.0
20
-33.8094609393
30
0.0
11
206.0
21
-35.0696917431
31
0.0
0
LINE
5
254
100
AcDbEntity
100
AcDbLine
8
2
62
256
370
-1
6
ByLayer
10
206.0
20
-35.0696917431
30
0.0
11
207.0
21
-36.3192399792
31
0.0
0
LINE
5
255
100
AcDbEntity
100
AcDbLine
8
2
62
256
370
-1
6
ByLayer
10
207.0
20
-36.3192399792
30
0.0
11
208.0
21
-37.5577250229
31
0.0
0
LINE
5
256
100
AcDbEntity
100
AcDbLine
8
2
62
256
370
-1
6
ByLayer
10
208.0
20
-37.5577250229
30
0.0
11
209.0
21
-38.7847696197
31
0.0
0
LINE
5
257
100
AcDbEntity
100
AcDbLine
8
2
62
256
370
-1
6
ByLayer
10
209.0
20
-38.7847696197
30
0.0
11
210.0
21
-40.0
31
0.0
0
LINE
5
258
100
AcDbEntity
100
AcDbLine
8
2
62
256
370
-1
6
ByLayer
10
210.0
20
-40.0
30
0.0
11
211.0
21
-41.2030459928
31
0.0
0
LINE
5
259
100
AcDbEntity
100
AcDbLine
8
2
62
256
370
-1
6
ByLayer
10
211.0
20
-41.2030459928
30
0.0
11
212.0
21
-42.3935411387
31
0.0
0
LINE
5
260
100
AcDbEntity
100
AcDbLine
8
2
62
256
370
-1
6
ByLayer
10
212.0
20
-42.3935411387
30
0.0
11
213.0
21
-43.5711228012
31
0.0
0
LINE
5
261
100
AcDbEntity
100
AcDbLine
8
2
62
256
370
-1
6
ByLayer
10
213.0
20
-43.5711228012
30
0.0
11
214.0
21
-44.7354322777
31
0.0
0
LINE
5
262
100
AcDbEntity
100
AcDbLine
8
2
62
256
370
-1
6
ByLayer
10
214.0
20
-44.7354322777
30
0.0
11
215.0
21
-45.8861149081
31
0.0
0
LINE
5
263
100
AcDbEntity
100
AcDbLine
8
2
62
256
370
-1
6
ByLayer
10
215.0
20
-45.8861149081
30
0.0
11
216.0
21
-47.0228201834
31
0.0
0
LINE
5
264
100
AcDbEntity
100
AcDbLine
8
2
62
256
370
-1
6
ByLayer
10
216.0
20
-47.0228201834
30
0.0
11
217.0
21
-48.1452018522
31
0.0
0
LINE
5
265
100
AcDbEntity
100
AcDbLine
8
2
62
256
370
-1
6
ByLayer
10
217.0
20
-48.1452018522
30
0.0
11
218.0
21
-49.2529180261
31
0.0
0
LINE
5
266
100
AcDbEntity
100
AcDbLine
8
2
62
256
370
-1
6
ByLayer
10
218.0
20
-49.2529180261
30
0.0
11
219.0
21
-50.345631284
31
0.0
0
LINE
5
267
100
AcDbEntity
100
AcDbLine
8
2
62
256
370
-1
6
ByLayer
10
219.0
20
-50.345631284
30
0.0
11
220.0
21
-51.4230087749
31
0.0
0
LINE
5
268
100
AcDbEntity
100
AcDbLine
8
2
62
256
370
-1
6
ByLayer
10
220.0
20
-51.4230087749
30
0.0
11
221.0
21
-52.4847223192
31
0.0
0
LINE
5
269
100
AcDbEntity
100
AcDbLine
8
2
62
256
370
-1
6
ByLayer
10
221.0
20
-52.4847223192
30
0.0
11
222.0
21
-53.5304485087
31
0.0
0
LINE
5
270
100
AcDbEntity
100
AcDbLine
8
2
62
256
370
-1
6
ByLayer
10
222.0
20
-53.5304485087
30
0.0
11
223.0
21
-54.559868805
31
0.0
0
LINE
5
271
100
AcDbEntity
100
AcDbLine
8
2
62
256
370
-1
6
ByLayer
10
223.0
20
-54.559868805
30
0.0
11
224.0
21
-55.5726696367
31
0.0
0
LINE
5
272
100
AcDbEntity
100
AcDbLine
8
2
62
256
370
-1
6
ByLayer
10
224.0
20
-55.5726696367
30
0.0
11
225.0
21
-56.5685424949
31
0.0
0
LINE
5
273
100
AcDbEntity
100
AcDbLine
8
2
62
256
370
-1
6
ByLayer
10
225.0
20
-56.5685424949
30
0.0
11
226.0
21
-57.5471840271
31
0.0
0
LINE
5
274
100
AcDbEntity
100
AcDbLine
8
2
62
256
370
-1
6
ByLayer
10
226.0
20
-57.5471840271
30
0.0
11
227.0
21
-58.5082961295
31
0.0
0
LINE
5
275
100
AcDbEntity
100
AcDbLine
8
2
62
256
370
-1
6
ByLayer
10
227.0
20
-58.5082961295
30
0.0
11
228.0
21
-59.4515860382
31
0.0
0
LINE
5
276
100
AcDbEntity
100
AcDbLine
8
2
62
256
370
-1
6
ByLayer
10
228.0
20
-59.4515860382
30
0.0
11
229.0
21
-60.3767664178
31
0.0
0
LINE
5
277
100
AcDbEntity
100
AcDbLine
8
2
62
256
370
-1
6
ByLayer
10
229.0
20
-60.3767664178
30
0.0
11
230.0
21
-61.2835554495
31
0.0
0
LINE
5
278
100
AcDbEntity
100
AcDbLine
8
2
62
256
370
-1
6
ByLayer
10
230.0
20
-61.2835554495
30
0.0
11
231.0
21
-62.1716769166
31
0.0
0
LINE
5
279
100
AcDbEntity
100
AcDbLine
8
2
62
256
370
-1
6
ByLayer
10
231.0
20
-62.1716769166
30
0.0
11
232.0
21
-63.0408602885
31
0.0
0
LINE
5
280
100
AcDbEntity
100
AcDbLine
8
2
62
256
370
-1
6
ByLayer
10
232.0
20
-63.0408602885
30
0.0
11
233.0
21
-63.8908408038
31
0.0
0
LINE
5
281
100
AcDbEntity
100
AcDbLine
8
2
62
256
370
-1
6
ByLayer
10
233.0
20
-63.8908408038
30
0.0
11
234.0
21
-64.72135955
31
0.0
0
LINE
5
282
100
AcDbEntity
100
AcDbLine
8
2
62
256
370
-1
6
ByLayer
10
234.0
20
-64.72135955
30
0.0
11
235.0
21
-65.5321635431
31
0.0
0
LINE
5
283
100
AcDbEntity
100
AcDbLine
8
2
62
256
370
-1
6
ByLayer
10
235.0
20
-65.5321635431
30
0.0
11
236.0
21
-66.3230058044
31
0.0
0
LINE
5
284
100
AcDbEntity
100
AcDbLine
8
2
62
256
370
-1
6
ByLayer
10
236.0
20
-66.3230058044
30
0.0
11
237.0
21
-67.0936454356
31
0.0
0
LINE
5
285
100
AcDbEntity
100
AcDbLine
8
2
62
256
370
-1
6
ByLayer
10
237.0
20
-67.0936454356
30
0.0
11
238.0
21
-67.8438476925
31
0.0
0
LINE
5
286
100
AcDbEntity
100
AcDbLine
8
2
62
256
370
-1
6
ByLayer
10
238.0
20
-67.8438476925
30
0.0
11
239.0
21
-68.5733840562
31
0.0
0
LINE
5
287
100
AcDbEntity
100
AcDbLine
8
2
62
256
370
-1
6
ByLayer
10
239.0
20
-68.5733840562
30
0.0
11
240.0
21
-69.2820323028
31
0.0
0
LINE
5
288
100
AcDbEntity
100
AcDbLine
8
2
62
256
370
-1
6
ByLayer
10
240.0
20
-69.2820323028
30
0.0
11
241.0
21
-69.9695765712
31
0.0
0
LINE
5
289
100
AcDbEntity
100
AcDbLine
8
2
62
256
370
-1
6
ByLayer
10
241.0
20
-69.9695765712
30
0.0
11
242.0
21
-70.6358074287
31
0.0
0
LINE
5
290
100
AcDbEntity
100
AcDbLine
8
2
62
256
370
-1
6
ByLayer
10
242.0
20
-70.6358074287
30
0.0
11
243.0
21
-71.2805219351
31
0.0
0
LINE
5
291
100
AcDbEntity
100
AcDbLine
8
2
62
256
370
-1
6
ByLayer
10
243.0
20
-71.2805219351
30
0.0
11
244.0
21
-71.9035237039
31
0.0
0
LINE
5
292
100
AcDbEntity
100
AcDbLine
8
2
62
256
370
-1
6
ByLayer
10
244.0
20
-71.9035237039
30
0.0
11
245.0
21
-72.5046229629
31
0.0
0
LINE
5
293
100
AcDbEntity
100
AcDbLine
8
2
62
256
370
-1
6
ByLayer
10
245.0
20
-72.5046229629
30
0.0
11
246.0
21
-73.0836366114
31
0.0
0
LINE
5
294
100
AcDbEntity
100
AcDbLine
8
2
62
256
370
-1
6
ByLayer
10
246.0
20
-73.0836366114
30
0.0
11
247.0
21
-73.6403882762
31
0.0
0
LINE
5
295
100
AcDbEntity
100
AcDbLine
8
2
62
256
370
-1
6
ByLayer
10
247.0
20
-73.6403882762
30
0.0
11
248.0
21
-74.1747083653
31
0.0
0
LINE
5
296
100
AcDbEntity
100
AcDbLine
8
2
62
256
370
-1
6
ByLayer
10
248.0
20
-74.1747083653
30
0.0
11
249.0
21
-74.6864341198
31
0.0
0
LINE
5
297
100
AcDbEntity
100
AcDbLine
8
2
62
256
370
-1
6
ByLayer
10
249.0
20
-74.6864341198
30
0.0
11
250.0
21
-75.1754096629
31
0.0
0
LINE
5
298
100
AcDbEntity
100
AcDbLine
8
2
62
256
370
-1
6
ByLayer
10
250.0
20
-75.1754096629
30
0.0
11
251.0
21
-75.6414860479
31
0.0
0
LINE
5
299
100
AcDbEntity
100
AcDbLine
8
2
62
256
370
-1
6
ByLayer
10
251.0
20
-75.6414860479
30
0.0
11
252.0
21
-76.0845213036
31
0.0
0
LINE
5
300
100
AcDbEntity
100
AcDbLine
8
2
62
256
370
-1
6
ByLayer
10
252.0
20
-76.0845213036
30
0.0
11
253.0
21
-76.504380477
31
0.0
0
LINE
5
301
100
AcDbEntity
100
AcDbLine
8
2
62
256
370
-1
6
ByLayer
10
253.0
20
-76.504380477
30
0.0
11
254.0
21
-76.9009356751
31
0.0
0
LINE
5
302
100
AcDbEntity
100
AcDbLine
8
2
62
256
370
-1
6
ByLayer
10
254.0
20
-76.9009356751
30
0.0
11
255.0
21
-77.2740661031
31
0.0
0
LINE
5
303
100
AcDbEntity
100
AcDbLine
8
2
62
256
370
-1
6
ByLayer
10
255.0
20
-77.2740661031
30
0.0
11
256.0
21
-77.6236581021
31
0.0
0
LINE
5
304
100
AcDbEntity
100
AcDbLine
8
2
62
256
370
-1
6
ByLayer
10
256.0
20
-77.6236581021
30
0.0
11
257.0
21
-77.9496051828
31
0.0
0
LINE
5
305
100
AcDbEntity
100
AcDbLine
8
2
62
256
370
-1
6
ByLayer
10
257.0
20
-77.9496051828
30
0.0
11
258.0
21
-78.2518080587
31
0.0
0
LINE
5
306
100
AcDbEntity
100
AcDbLine
8
2
62
256
370
-1
6
ByLayer
10
258.0
20
-78.2518080587
30
0.0
11
259.0
21
-78.5301746758
31
0.0
0
LINE
5
307
100
AcDbEntity
100
AcDbLine
8
2
62
256
370
-1
6
ByLayer
10
259.0
20
-78.5301746758
30
0.0
11
260.0
21
-78.784620241
31
0.0
0
LINE
5
308
100
AcDbEntity
100
AcDbLine
8
2
62
256
370
-1
6
ByLayer
10
260.0
20
-78.784620241
30
0.0
11
261.0
21
-79.0150672476
31
0.0
0
LINE
5
309
100
AcDbEntity
100
AcDbLine
8
2
62
256
370
-1
6
ByLayer
10
261.0
20
-79.0150672476
30
0.0
11
262.0
21
-79.2214454993
31
0.0
0
LINE
5
310
100
AcDbEntity
100
AcDbLine
8
2
62
256
370
-1
6
ByLayer
10
262.0
20
-79.2214454993
30
0.0
11
263.0
21
-79.4036921313
31
0.0
0
LINE
5
311
100
AcDbEntity
100
AcDbLine
8
2
62
256
370
-1
6
ByLayer
10
263.0
20
-79.4036921313
30
0.0
11
264.0
21
-79.5617516295
31
0.0
0
LINE
5
312
100
AcDbEntity
100
AcDbLine
8
2
62
256
370
-1
6
ByLayer
10
264.0
20
-79.5617516295
30
0.0
11
265.0
21
-79.6955758473
31
0.0
0
LINE
5
313
100
AcDbEntity
100
AcDbLine
8
2
62
256
370
-1
6
ByLayer
10
265.0
20
-79.6955758473
30
0.0
11
266.0
21
-79.8051240208
31
0.0
0
LINE
5
314
100
AcDbEntity
100
AcDbLine
8
2
62
256
370
-1
6
ByLayer
10
266.0
20
-79.8051240208
30
0.0
11
267.0
21
-79.8903627804
31
0.0
0
LINE
5
315
100
AcDbEntity
100
AcDbLine
8
2
62
256
370
-1
6
ByLayer
10
267.0
20
-79.8903627804
30
0.0
11
268.0
21
-79.9512661615
31
0.0
0
LINE
5
316
100
AcDbEntity
100
AcDbLine
8
2
62
256
370
-1
6
ByLayer
10
268.0
20
-79.9512661615
30
0.0
11
269.0
21
-79.9878156125
31
0.0
0
LINE
5
317
100
AcDbEntity
100
AcDbLine
8
2
62
256
370
-1
6
ByLayer
10
269.0
20
-79.9878156125
30
0.0
11
270.0
21
-80.0
31
0.0
0
LINE
5
318
100
AcDbEntity
100
AcDbLine
8
2
62
256
370
-1
6
ByLayer
10
270.0
20
-80.0
30
0.0
11
271.0
21
-79.9878156125
31
0.0
0
LINE
5
319
100
AcDbEntity
100
AcDbLine
8
2
62
256
370
-1
6
ByLayer
10
271.0
20
-79.9878156125
30
0.0
11
272.0
21
-79.9512661615
31
0.0
0
LINE
5
320
100
AcDbEntity
100
AcDbLine
8
2
62
256
370
-1
6
ByLayer
10
272.0
20
-79.9512661615
30
0.0
11
273.0
21
-79.8903627804
31
0.0
0
LINE
5
321
100
AcDbEntity
100
AcDbLine
8
2
62
256
370
-1
6
ByLayer
10
273.0
20
-79.8903627804
30
0.0
11
274.0
21
-79.8051240208
31
0.0
0
LINE
5
322
100
AcDbEntity
100
AcDbLine
8
2
62
256
370
-1
6
ByLayer
10
274.0
20
-79.8051240208
30
0.0
11
275.0
21
-79.6955758473
31
0.0
0
LINE
5
323
100
AcDbEntity
100
AcDbLine
8
2
62
256
370
-1
6
ByLayer
10
275.0
20
-79.6955758473
30
0.0
11
276.0
21
-79.5617516295
31
0.0
0
LINE
5
324
100
AcDbEntity
100
AcDbLine
8
2
62
256
370
-1
6
ByLayer
10
276.0
20
-79.5617516295
30
0.0
11
277.0
21
-79.4036921313
31
0.0
0
LINE
5
325
100
AcDbEntity
100
AcDbLine
8
2
62
256
370
-1
6
ByLayer
10
277.0
20
-79.4036921313
30
0.0
11
278.0
21
-79.2214454993
31
0.0
0
LINE
5
326
100
AcDbEntity
100
AcDbLine
8
2
62
256
370
-1
6
ByLayer
10
278.0
20
-79.2214454993
30
0.0
11
279.0
21
-79.0150672476
31
0.0
0
LINE
5
327
100
AcDbEntity
100
AcDbLine
8
2
62
256
370
-1
6
ByLayer
10
279.0
20
-79.0150672476
30
0.0
11
280.0
21
-78.784620241
31
0.0
0
LINE
5
328
100
AcDbEntity
100
AcDbLine
8
2
62
256
370
-1
6
ByLayer
10
280.0
20
-78.784620241
30
0.0
11
281.0
21
-78.5301746758
31
0.0
0
LINE
5
329
100
AcDbEntity
100
AcDbLine
8
2
62
256
370
-1
6
ByLayer
10
281.0
20
-78.5301746758
30
0.0
11
282.0
21
-78.2518080587
31
0.0
0
LINE
5
330
100
AcDbEntity
100
AcDbLine
8
2
62
256
370
-1
6
ByLayer
10
282.0
20
-78.2518080587
30
0.0
11
283.0
21
-77.9496051828
31
0.0
0
LINE
5
331
100
AcDbEntity
100
AcDbLine
8
2
62
256
370
-1
6
ByLayer
10
283.0
20
-77.9496051828
30
0.0
11
284.0
21
-77.6236581021
31
0.0
0
LINE
5
332
100
AcDbEntity
100
AcDbLine
8
2
62
256
370
-1
6
ByLayer
10
284.0
20
-77.6236581021
30
0.0
11
285.0
21
-77.2740661031
31
0.0
0
LINE
5
333
100
AcDbEntity
100
AcDbLine
8
2
62
256
370
-1
6
ByLayer
10
285.0
20
-77.2740661031
30
0.0
11
286.0
21
-76.9009356751
31
0.0
0
LINE
5
334
100
AcDbEntity
100
AcDbLine
8
2
62
256
370
-1
6
ByLayer
10
286.0
20
-76.9009356751
30
0.0
11
287.0
21
-76.504380477
31
0.0
0
LINE
5
335
100
AcDbEntity
100
AcDbLine
8
2
62
256
370
-1
6
ByLayer
10
287.0
20
-76.504380477
30
0.0
11
288.0
21
-76.0845213036
31
0.0
0
LINE
5
336
100
AcDbEntity
100
AcDbLine
8
2
62
256
370
-1
6
ByLayer
10
288.0
20
-76.0845213036
30
0.0
11
289.0
21
-75.6414860479
31
0.0
0
LINE
5
337
100
AcDbEntity
100
AcDbLine
8
2
62
256
370
-1
6
ByLayer
10
289.0
20
-75.6414860479
30
0.0
11
290.0
21
-75.1754096629
31
0.0
0
LINE
5
338
100
AcDbEntity
100
AcDbLine
8
2
62
256
370
-1
6
ByLayer
10
290.0
20
-75.1754096629
30
0.0
11
291.0
21
-74.6864341198
31
0.0
0
LINE
5
339
100
AcDbEntity
100
AcDbLine
8
2
62
256
370
-1
6
ByLayer
10
291.0
20
-74.6864341198
30
0.0
11
292.0
21
-74.1747083653
31
0.0
0
LINE
5
340
100
AcDbEntity
100
AcDbLine
8
2
62
256
370
-1
6
ByLayer
10
292.0
20
-74.1747083653
30
0.0
11
293.0
21
-73.6403882762
31
0.0
0
LINE
5
341
100
AcDbEntity
100
AcDbLine
8
2
62
256
370
-1
6
ByLayer
10
293.0
20
-73.6403882762
30
0.0
11
294.0
21
-73.0836366114
31
0.0
0
LINE
5
342
100
AcDbEntity
100
AcDbLine
8
2
62
256
370
-1
6
ByLayer
10
294.0
20
-73.0836366114
30
0.0
11
295.0
21
-72.5046229629
31
0.0
0
LINE
5
343
100
AcDbEntity
100
AcDbLine
8
2
62
256
370
-1
6
ByLayer
10
295.0
20
-72.5046229629
30
0.0
11
296.0
21
-71.9035237039
31
0.0
0
LINE
5
344
100
AcDbEntity
100
AcDbLine
8
2
62
256
370
-1
6
ByLayer
10
296.0
20
-71.9035237039
30
0.0
11
297.0
21
-71.2805219351
31
0.0
0
LINE
5
345
100
AcDbEntity
100
AcDbLine
8
2
62
256
370
-1
6
ByLayer
10
297.0
20
-71.2805219351
30
0.0
11
298.0
21
-70.6358074287
31
0.0
0
LINE
5
346
100
AcDbEntity
100
AcDbLine
8
2
62
256
370
-1
6
ByLayer
10
298.0
20
-70.6358074287
30
0.0
11
299.0
21
-69.9695765712
31
0.0
0
LINE
5
347
100
AcDbEntity
100
AcDbLine
8
2
62
256
370
-1
6
ByLayer
10
299.0
20
-69.9695765712
30
0.0
11
300.0
21
-69.2820323028
31
0.0
0
LINE
5
348
100
AcDbEntity
100
AcDbLine
8
2
62
256
370
-1
6
ByLayer
10
300.0
20
-69.2820323028
30
0.0
11
301.0
21
-68.5733840562
31
0.0
0
LINE
5
349
100
AcDbEntity
100
AcDbLine
8
2
62
256
370
-1
6
ByLayer
10
301.0
20
-68.5733840562
30
0.0
11
302.0
21
-67.8438476925
31
0.0
0
LINE
5
350
100
AcDbEntity
100
AcDbLine
8
2
62
256
370
-1
6
ByLayer
10
302.0
20
-67.8438476925
30
0.0
11
303.0
21
-67.0936454356
31
0.0
0
LINE
5
351
100
AcDbEntity
100
AcDbLine
8
2
62
256
370
-1
6
ByLayer
10
303.0
20
-67.0936454356
30
0.0
11
304.0
21
-66.3230058044
31
0.0
0
LINE
5
352
100
AcDbEntity
100
AcDbLine
8
2
62
256
370
-1
6
ByLayer
10
304.0
20
-66.3230058044
30
0.0
11
305.0
21
-65.5321635431
31
0.0
0
LINE
5
353
100
AcDbEntity
100
AcDbLine
8
2
62
256
370
-1
6
ByLayer
10
305.0
20
-65.5321635431
30
0.0
11
306.0
21
-64.72135955
31
0.0
0
LINE
5
354
100
AcDbEntity
100
AcDbLine
8
2
62
256
370
-1
6
ByLayer
10
306.0
20
-64.72135955
30
0.0
11
307.0
21
-63.8908408038
31
0.0
0
LINE
5
355
100
AcDbEntity
100
AcDbLine
8
2
62
256
370
-1
6
ByLayer
10
307.0
20
-63.8908408038
30
0.0
11
308.0
21
-63.0408602885
31
0.0
0
LINE
5
356
100
AcDbEntity
100
AcDbLine
8
2
62
256
370
-1
6
ByLayer
10
308.0
20
-63.0408602885
30
0.0
11
309.0
21
-62.1716769166
31
0.0
0
LINE
5
357
100
AcDbEntity
100
AcDbLine
8
2
62
256
370
-1
6
ByLayer
10
309.0
20
-62.1716769166
30
0.0
11
310.0
21
-61.2835554495
31
0.0
0
LINE
5
358
100
AcDbEntity
100
AcDbLine
8
2
62
256
370
-1
6
ByLayer
10
310.0
20
-61.2835554495
30
0.0
11
311.0
21
-60.3767664178
31
0.0
0
LINE
5
359
100
AcDbEntity
100
AcDbLine
8
2
62
256
370
-1
6
ByLayer
10
311.0
20
-60.3767664178
30
0.0
11
312.0
21
-59.4515860382
31
0.0
0
LINE
5
360
100
AcDbEntity
100
AcDbLine
8
2
62
256
370
-1
6
ByLayer
10
312.0
20
-59.4515860382
30
0.0
11
313.0
21
-58.5082961295
31
0.0
0
LINE
5
361
100
AcDbEntity
100
AcDbLine
8
2
62
256
370
-1
6
ByLayer
10
313.0
20
-58.5082961295
30
0.0
11
314.0
21
-57.5471840271
31
0.0
0
LINE
5
362
100
AcDbEntity
100
AcDbLine
8
2
62
256
370
-1
6
ByLayer
10
314.0
20
-57.5471840271
30
0.0
11
315.0
21
-56.5685424949
31
0.0
0
LINE
5
363
100
AcDbEntity
100
AcDbLine
8
2
62
256
370
-1
6
ByLayer
10
315.0
20
-56.5685424949
30
0.0
11
316.0
21
-55.5726696367
31
0.0
0
LINE
5
364
100
AcDbEntity
100
AcDbLine
8
2
62
256
370
-1
6
ByLayer
10
316.0
20
-55.5726696367
30
0.0
11
317.0
21
-54.559868805
31
0.0
0
LINE
5
365
100
AcDbEntity
100
AcDbLine
8
2
62
256
370
-1
6
ByLayer
10
317.0
20
-54.559868805
30
0.0
11
318.0
21
-53.5304485087
31
0.0
0
LINE
5
366
100
AcDbEntity
100
AcDbLine
8
2
62
256
370
-1
6
ByLayer
10
318.0
20
-53.5304485087
30
0.0
11
319.0
21
-52.4847223192
31
0.0
0
LINE
5
367
100
AcDbEntity
100
AcDbLine
8
2
62
256
370
-1
6
ByLayer
10
319.0
20
-52.4847223192
30
0.0
11
320.0
21
-51.4230087749
31
0.0
0
LINE
5
368
100
AcDbEntity
100
AcDbLine
8
2
62
256
370
-1
6
ByLayer
10
320.0
20
-51.4230087749
30
0.0
11
321.0
21
-50.345631284
31
0.0
0
LINE
5
369
100
AcDbEntity
100
AcDbLine
8
2
62
256
370
-1
6
ByLayer
10
321.0
20
-50.345631284
30
0.0
11
322.0
21
-49.2529180261
31
0.0
0
LINE
5
370
100
AcDbEntity
100
AcDbLine
8
2
62
256
370
-1
6
ByLayer
10
322.0
20
-49.2529180261
30
0.0
11
323.0
21
-48.1452018522
31
0.0
0
LINE
5
371
100
AcDbEntity
100
AcDbLine
8
2
62
256
370
-1
6
ByLayer
10
323.0
20
-48.1452018522
30
0.0
11
324.0
21
-47.0228201834
31
0.0
0
LINE
5
372
100
AcDbEntity
100
AcDbLine
8
2
62
256
370
-1
6
ByLayer
10
324.0
20
-47.0228201834
30
0.0
11
325.0
21
-45.8861149081
31
0.0
0
LINE
5
373
100
AcDbEntity
100
AcDbLine
8
2
62
256
370
-1
6
ByLayer
10
325.0
20
-45.8861149081
30
0.0
11
326.0
21
-44.7354322777
31
0.0
0
LINE
5
374
100
AcDbEntity
100
AcDbLine
8
2
62
256
370
-1
6
ByLayer
10
326.0
20
-44.7354322777
30
0.0
11
327.0
21
-43.5711228012
31
0.0
0
LINE
5
375
100
AcDbEntity
100
AcDbLine
8
2
62
256
370
-1
6
ByLayer
10
327.0
20
-43.5711228012
30
0.0
11
328.0
21
-42.3935411387
31
0.0
0
LINE
5
376
100
AcDbEntity
100
AcDbLine
8
2
62
256
370
-1
6
ByLayer
10
328.0
20
-42.3935411387
30
0.0
11
329.0
21
-41.2030459928
31
0.0
0
LINE
5
377
100
AcDbEntity
100
AcDbLine
8
2
62
256
370
-1
6
ByLayer
10
329.0
20
-41.2030459928
30
0.0
11
330.0
21
-40.0
31
0.0
0
LINE
5
378
100
AcDbEntity
100
AcDbLine
8
2
62
256
370
-1
6
ByLayer
10
330.0
20
-40.0
30
0.0
11
331.0
21
-38.7847696197
31
0.0
0
LINE
5
379
100
AcDbEntity
100
AcDbLine
8
2
62
256
370
-1
6
ByLayer
10
331.0
20
-38.7847696197
30
0.0
11
332.0
21
-37.5577250229
31
0.0
0
LINE
5
380
100
AcDbEntity
100
AcDbLine
8
2
62
256
370
-1
6
ByLayer
10
332.0
20
-37.5577250229
30
0.0
11
333.0
21
-36.3192399792
31
0.0
0
LINE
5
381
100
AcDbEntity
100
AcDbLine
8
2
62
256
370
-1
6
ByLayer
10
333.0
20
-36.3192399792
30
0.0
11
334.0
21
-35.0696917431
31
0.0
0
LINE
5
382
100
AcDbEntity
100
AcDbLine
8
2
62
256
370
-1
6
ByLayer
10
334.0
20
-35.0696917431
30
0.0
11
335.0
21
-33.8094609393
31
0.0
0
LINE
5
383
100
AcDbEntity
100
AcDbLine
8
2
62
256
370
-1
6
ByLayer
10
335.0
20
-33.8094609393
30
0.0
11
336.0
21
-32.5389314461
31
0.0
0
LINE
5
384
100
AcDbEntity
100
AcDbLine
8
2
62
256
370
-1
6
ByLayer
10
336.0
20
-32.5389314461
30
0.0
11
337.0
21
-31.2584902791
31
0.0
0
LINE
5
385
100
AcDbEntity
100
AcDbLine
8
2
62
256
370
-1
6
ByLayer
10
337.0
20
-31.2584902791
30
0.0
11
338.0
21
-29.9685274733
31
0.0
0
LINE
5
386
100
AcDbEntity
100
AcDbLine
8
2
62
256
370
-1
6
ByLayer
10
338.0
20
-29.9685274733
30
0.0
11
339.0
21
-28.6694359636
31
0.0
0
LINE
5
387
100
AcDbEntity
100
AcDbLine
8
2
62
256
370
-1
6
ByLayer
10
339.0
20
-28.6694359636
30
0.0
11
340.0
21
-27.3616114661
31
0.0
0
LINE
5
388
100
AcDbEntity
100
AcDbLine
8
2
62
256
370
-1
6
ByLayer
10
340.0
20
-27.3616114661
30
0.0
11
341.0
21
-26.0454523566
31
0.0
0
LINE
5
389
100
AcDbEntity
100
AcDbLine
8
2
62
256
370
-1
6
ByLayer
10
341.0
20
-26.0454523566
30
0.0
11
342.0
21
-24.72135955
31
0.0
0
LINE
5
390
100
AcDbEntity
100
AcDbLine
8
2
62
256
370
-1
6
ByLayer
10
342.0
20
-24.72135955
30
0.0
11
343.0
21
-23.3897363778
31
0.0
0
LINE
5
391
100
AcDbEntity
100
AcDbLine
8
2
62
256
370
-1
6
ByLayer
10
343.0
20
-23.3897363778
30
0.0
11
344.0
21
-22.0509884654
31
0.0
0
LINE
5
392
100
AcDbEntity
100
AcDbLine
8
2
62
256
370
-1
6
ByLayer
10
344.0
20
-22.0509884654
30
0.0
11
345.0
21
-20.7055236082
31
0.0
0
LINE
5
393
100
AcDbEntity
100
AcDbLine
8
2
62
256
370
-1
6
ByLayer
10
345.0
20
-20.7055236082
30
0.0
11
346.0
21
-19.353751648
31
0.0
0
LINE
5
394
100
AcDbEntity
100
AcDbLine
8
2
62
256
370
-1
6
ByLayer
10
346.0
20
-19.353751648
30
0.0
11
347.0
21
-17.9960843475
31
0.0
0
LINE
5
395
100
AcDbEntity
100
AcDbLine
8
2
62
256
370
-1
6
ByLayer
10
347.0
20
-17.9960843475
30
0.0
11
348.0
21
-16.6329352654
31
0.0
0
LINE
5
396
100
AcDbEntity
100
AcDbLine
8
2
62
256
370
-1
6
ByLayer
10
348.0
20
-16.6329352654
30
0.0
11
349.0
21
-15.2647196301
31
0.0
0
LINE
5
397
100
AcDbEntity
100
AcDbLine
8
2
62
256
370
-1
6
ByLayer
10
349.0
20
-15.2647196301
30
0.0
11
350.0
21
-13.8918542134
31
0.0
0
LINE
5
398
100
AcDbEntity
100
AcDbLine
8
2
62
256
370
-1
6
ByLayer
10
350.0
20
-13.8918542134
30
0.0
11
351.0
21
-12.5147572032
31
0.0
0
LINE
5
399
100
AcDbEntity
100
AcDbLine
8
2
62
256
370
-1
6
ByLayer
10
351.0
20
-12.5147572032
30
0.0
11
352.0
21
-11.1338480768
31
0.0
0
LINE
5
400
100
AcDbEntity
100
AcDbLine
8
2
62
256
370
-1
6
ByLayer
10
352.0
20
-11.1338480768
30
0.0
11
353.0
21
-9.74954747241
31
0.0
0
LINE
5
401
100
AcDbEntity
100
AcDbLine
8
2
62
256
370
-1
6
ByLayer
10
353.0
20
-9.74954747241
30
0.0
11
354.0
21
-8.36227706141
31
0.0
0
LINE
5
402
100
AcDbEntity
100
AcDbLine
8
2
62
256
370
-1
6
ByLayer
10
354.0
20
-8.36227706141
30
0.0
11
355.0
21
-6.97245941981
31
0.0
0
LINE
5
403
100
AcDbEntity
100
AcDbLine
8
2
62
256
370
-1
6
ByLayer
10
355.0
20
-6.97245941981
30
0.0
11
356.0
21
-5.58051789953
31
0.0
0
LINE
5
404
100
AcDbEntity
100
AcDbLine
8
2
62
256
370
-1
6
ByLayer
10
356.0
20
-5.58051789953
30
0.0
11
357.0
21
-4.18687649944
31
0.0
0
LINE
5
405
100
AcDbEntity
100
AcDbLine
8
2
62
256
370
-1
6
ByLayer
10
357.0
20
-4.18687649944
30
0.0
11
358.0
21
-2.7919597362
31
0.0
0
LINE
5
406
100
AcDbEntity
100
AcDbLine
8
2
62
256
370
-1
6
ByLayer
10
358.0
20
-2.7919597362
30
0.0
11
359.0
21
-1.39619251498
31
0.0
0
LINE
5
407
100
AcDbEntity
100
AcDbLine
8
2
62
256
370
-1
6
ByLayer
10
359.0
20
-1.39619251498
30
0.0
11
360.0
21
0.0
31
0.0
0
LINE
5
408
100
AcDbEntity
100
AcDbLine
8
3
62
256
370
-1
6
ByLayer
10
0.0
20
280.0
30
0.0
11
1.0
21
279.987815613
31
0.0
0
LINE
5
409
100
AcDbEntity
100
AcDbLine
8
3
62
256
370
-1
6
ByLayer
10
1.0
20
279.987815613
30
0.0
11
2.0
21
279.951266162
31
0.0
0
LINE
5
410
100
AcDbEntity
100
AcDbLine
8
3
62
256
370
-1
6
ByLayer
10
2.0
20
279.951266162
30
0.0
11
3.0
21
279.89036278
31
0.0
0
LINE
5
411
100
AcDbEntity
100
AcDbLine
8
3
62
256
370
-1
6
ByLayer
10
3.0
20
279.89036278
30
0.0
11
4.0
21
279.805124021
31
0.0
0
LINE
5
412
100
AcDbEntity
100
AcDbLine
8
3
62
256
370
-1
6
ByLayer
10
4.0
20
279.805124021
30
0.0
11
5.0
21
279.695575847
31
0.0
0
LINE
5
413
100
AcDbEntity
100
AcDbLine
8
3
62
256
370
-1
6
ByLayer
10
5.0
20
279.695575847
30
0.0
11
6.0
21
279.56175163
31
0.0
0
LINE
5
414
100
AcDbEntity
100
AcDbLine
8
3
62
256
370
-1
6
ByLayer
10
6.0
20
279.56175163
30
0.0
11
7.0
21
279.403692131
31
0.0
0
LINE
5
415
100
AcDbEntity
100
AcDbLine
8
3
62
256
370
-1
6
ByLayer
10
7.0
20
279.403692131
30
0.0
11
8.0
21
279.221445499
31
0.0
0
LINE
5
416
100
AcDbEntity
100
AcDbLine
8
3
62
256
370
-1
6
ByLayer
10
8.0
20
279.221445499
30
0.0
11
9.0
21
279.015067248
31
0.0
0
LINE
5
417
100
AcDbEntity
100
AcDbLine
8
3
62
256
370
-1
6
ByLayer
10
9.0
20
279.015067248
30
0.0
11
10.0
21
278.784620241
31
0.0
0
LINE
5
418
100
AcDbEntity
100
AcDbLine
8
3
62
256
370
-1
6
ByLayer
10
10.0
20
278.784620241
30
0.0
11
11.0
21
278.530174676
31
0.0
0
LINE
5
419
100
AcDbEntity
100
AcDbLine
8
3
62
256
370
-1
6
ByLayer
10
11.0
20
278.530174676
30
0.0
11
12.0
21
278.251808059
31
0.0
0
LINE
5
420
100
AcDbEntity
100
AcDbLine
8
3
62
256
370
-1
6
ByLayer
10
12.0
20
278.251808059
30
0.0
11
13.0
21
277.949605183
31
0.0
0
LINE
5
421
100
AcDbEntity
100
AcDbLine
8
3
62
256
370
-1
6
ByLayer
10
13.0
20
277.949605183
30
0.0
11
14.0
21
277.623658102
31
0.0
0
LINE
5
422
100
AcDbEntity
100
AcDbLine
8
3
62
256
370
-1
6
ByLayer
10
14.0
20
277.623658102
30
0.0
11
15.0
21
277.274066103
31
0.0
0
LINE
5
423
100
AcDbEntity
100
AcDbLine
8
3
62
256
370
-1
6
ByLayer
10
15.0
20
277.274066103
30
0.0
11
16.0
21
276.900935675
31
0.0
0
LINE
5
424
100
AcDbEntity
100
AcDbLine
8
3
62
256
370
-1
6
ByLayer
10
16.0
20
276.900935675
30
0.0
11
17.0
21
276.504380477
31
0.0
0
LINE
5
425
100
AcDbEntity
100
AcDbLine
8
3
62
256
370
-1
6
ByLayer
10
17.0
20
276.504380477
30
0.0
11
18.0
21
276.084521304
31
0.0
0
LINE
5
426
100
AcDbEntity
100
AcDbLine
8
3
62
256
370
-1
6
ByLayer
10
18.0
20
276.084521304
30
0.0
11
19.0
21
275.641486048
31
0.0
0
LINE
5
427
100
AcDbEntity
100
AcDbLine
8
3
62
256
370
-1
6
ByLayer
10
19.0
20
275.641486048
30
0.0
11
20.0
21
275.175409663
31
0.0
0
LINE
5
428
100
AcDbEntity
100
AcDbLine
8
3
62
256
370
-1
6
ByLayer
10
20.0
20
275.175409663
30
0.0
11
21.0
21
274.68643412
31
0.0
0
LINE
5
429
100
AcDbEntity
100
AcDbLine
8
3
62
256
370
-1
6
ByLayer
10
21.0
20
274.68643412
30
0.0
11
22.0
21
274.174708365
31
0.0
0
LINE
5
430
100
AcDbEntity
100
AcDbLine
8
3
62
256
370
-1
6
ByLayer
10
22.0
20
274.174708365
30
0.0
11
23.0
21
273.640388276
31
0.0
0
LINE
5
431
100
AcDbEntity
100
AcDbLine
8
3
62
256
370
-1
6
ByLayer
10
23.0
20
273.640388276
30
0.0
11
24.0
21
273.083636611
31
0.0
0
LINE
5
432
100
AcDbEntity
100
AcDbLine
8
3
62
256
370
-1
6
ByLayer
10
24.0
20
273.083636611
30
0.0
11
25.0
21
272.504622963
31
0.0
0
LINE
5
433
100
AcDbEntity
100
AcDbLine
8
3
62
256
370
-1
6
ByLayer
10
25.0
20
272.504622963
30
0.0
11
26.0
21
271.903523704
31
0.0
0
LINE
5
434
100
AcDbEntity
100
AcDbLine
8
3
62
256
370
-1
6
ByLayer
10
26.0
20
271.903523704
30
0.0
11
27.0
21
271.280521935
31
0.0
0
LINE
5
435
100
AcDbEntity
100
AcDbLine
8
3
62
256
370
-1
6
ByLayer
10
27.0
20
271.280521935
30
0.0
11
28.0
21
270.635807429
31
0.0
0
LINE
5
436
100
AcDbEntity
100
AcDbLine
8
3
62
256
370
-1
6
ByLayer
10
28.0
20
270.635807429
30
0.0
11
29.0
21
269.969576571
31
0.0
0
LINE
5
437
100
AcDbEntity
100
AcDbLine
8
3
62
256
370
-1
6
ByLayer
10
29.0
20
269.969576571
30
0.0
11
30.0
21
269.282032303
31
0.0
0
LINE
5
438
100
AcDbEntity
100
AcDbLine
8
3
62
256
370
-1
6
ByLayer
10
30.0
20
269.282032303
30
0.0
11
31.0
21
268.573384056
31
0.0
0
LINE
5
439
100
AcDbEntity
100
AcDbLine
8
3
62
256
370
-1
6
ByLayer
10
31.0
20
268.573384056
30
0.0
11
32.0
21
267.843847692
31
0.0
0
LINE
5
440
100
AcDbEntity
100
AcDbLine
8
3
62
256
370
-1
6
ByLayer
10
32.0
20
267.843847692
30
0.0
11
33.0
21
267.093645436
31
0.0
0
LINE
5
441
100
AcDbEntity
100
AcDbLine
8
3
62
256
370
-1
6
ByLayer
10
33.0
20
267.093645436
30
0.0
11
34.0
21
266.323005804
31
0.0
0
LINE
5
442
100
AcDbEntity
100
AcDbLine
8
3
62
256
370
-1
6
ByLayer
10
34.0
20
266.323005804
30
0.0
11
35.0
21
265.532163543
31
0.0
0
LINE
5
443
100
AcDbEntity
100
AcDbLine
8
3
62
256
370
-1
6
ByLayer
10
35.0
20
265.532163543
30
0.0
11
36.0
21
264.72135955
31
0.0
0
LINE
5
444
100
AcDbEntity
100
AcDbLine
8
3
62
256
370
-1
6
ByLayer
10
36.0
20
264.72135955
30
0.0
11
37.0
21
263.890840804
31
0.0
0
LINE
5
445
100
AcDbEntity
100
AcDbLine
8
3
62
256
370
-1
6
ByLayer
10
37.0
20
263.890840804
30
0.0
11
38.0
21
263.040860288
31
0.0
0
LINE
5
446
100
AcDbEntity
100
AcDbLine
8
3
62
256
370
-1
6
ByLayer
10
38.0
20
263.040860288
30
0.0
11
39.0
21
262.171676917
31
0.0
0
LINE
5
447
100
AcDbEntity
100
AcDbLine
8
3
62
256
370
-1
6
ByLayer
10
39.0
20
262.171676917
30
0.0
11
40.0
21
261.283555449
31
0.0
0
LINE
5
448
100
AcDbEntity
100
AcDbLine
8
3
62
256
370
-1
6
ByLayer
10
40.0
20
261.283555449
30
0.0
11
41.0
21
260.376766418
31
0.0
0
LINE
5
449
100
AcDbEntity
100
AcDbLine
8
3
62
256
370
-1
6
ByLayer
10
41.0
20
260.376766418
30
0.0
11
42.0
21
259.451586038
31
0.0
0
LINE
5
450
100
AcDbEntity
100
AcDbLine
8
3
62
256
370
-1
6
ByLayer
10
42.0
20
259.451586038
30
0.0
11
43.0
21
258.50829613
31
0.0
0
LINE
5
451
100
AcDbEntity
100
AcDbLine
8
3
62
256
370
-1
6
ByLayer
10
43.0
20
258.50829613
30
0.0
11
44.0
21
257.547184027
31
0.0
0
LINE
5
452
100
AcDbEntity
100
AcDbLine
8
3
62
256
370
-1
6
ByLayer
10
44.0
20
257.547184027
30
0.0
11
45.0
21
256.568542495
31
0.0
0
LINE
5
453
100
AcDbEntity
100
AcDbLine
8
3
62
256
370
-1
6
ByLayer
10
45.0
20
256.568542495
30
0.0
11
46.0
21
255.572669637
31
0.0
0
LINE
5
454
100
AcDbEntity
100
AcDbLine
8
3
62
256
370
-1
6
ByLayer
10
46.0
20
255.572669637
30
0.0
11
47.0
21
254.559868805
31
0.0
0
LINE
5
455
100
AcDbEntity
100
AcDbLine
8
3
62
256
370
-1
6
ByLayer
10
47.0
20
254.559868805
30
0.0
11
48.0
21
253.530448509
31
0.0
0
LINE
5
456
100
AcDbEntity
100
AcDbLine
8
3
62
256
370
-1
6
ByLayer
10
48.0
20
253.530448509
30
0.0
11
49.0
21
252.484722319
31
0.0
0
LINE
5
457
100
AcDbEntity
100
AcDbLine
8
3
62
256
370
-1
6
ByLayer
10
49.0
20
252.484722319
30
0.0
11
50.0
21
251.423008775
31
0.0
0
LINE
5
458
100
AcDbEntity
100
AcDbLine
8
3
62
256
370
-1
6
ByLayer
10
50.0
20
251.423008775
30
0.0
11
51.0
21
250.345631284
31
0.0
0
LINE
5
459
100
AcDbEntity
100
AcDbLine
8
3
62
256
370
-1
6
ByLayer
10
51.0
20
250.345631284
30
0.0
11
52.0
21
249.252918026
31
0.0
0
LINE
5
460
100
AcDbEntity
100
AcDbLine
8
3
62
256
370
-1
6
ByLayer
10
52.0
20
249.252918026
30
0.0
11
53.0
21
248.145201852
31
0.0
0
LINE
5
461
100
AcDbEntity
100
AcDbLine
8
3
62
256
370
-1
6
ByLayer
10
53.0
20
248.145201852
30
0.0
11
54.0
21
247.022820183
31
0.0
0
LINE
5
462
100
AcDbEntity
100
AcDbLine
8
3
62
256
370
-1
6
ByLayer
10
54.0
20
247.022820183
30
0.0
11
55.0
21
245.886114908
31
0.0
0
LINE
5
463
100
AcDbEntity
100
AcDbLine
8
3
62
256
370
-1
6
ByLayer
10
55.0
20
245.886114908
30
0.0
11
56.0
21
244.735432278
31
0.0
0
LINE
5
464
100
AcDbEntity
100
AcDbLine
8
3
62
256
370
-1
6
ByLayer
10
56.0
20
244.735432278
30
0.0
11
57.0
21
243.571122801
31
0.0
0
LINE
5
465
100
AcDbEntity
100
AcDbLine
8
3
62
256
370
-1
6
ByLayer
10
57.0
20
243.571122801
30
0.0
11
58.0
21
242.393541139
31
0.0
0
LINE
5
466
100
AcDbEntity
100
AcDbLine
8
3
62
256
370
-1
6
ByLayer
10
58.0
20
242.393541139
30
0.0
11
59.0
21
241.203045993
31
0.0
0
LINE
5
467
100
AcDbEntity
100
AcDbLine
8
3
62
256
370
-1
6
ByLayer
10
59.0
20
241.203045993
30
0.0
11
60.0
21
240.0
31
0.0
0
LINE
5
468
100
AcDbEntity
100
AcDbLine
8
3
62
256
370
-1
6
ByLayer
10
60.0
20
240.0
30
0.0
11
61.0
21
238.78476962
31
0.0
0
LINE
5
469
100
AcDbEntity
100
AcDbLine
8
3
62
256
370
-1
6
ByLayer
10
61.0
20
238.78476962
30
0.0
11
62.0
21
237.557725023
31
0.0
0
LINE
5
470
100
AcDbEntity
100
AcDbLine
8
3
62
256
370
-1
6
ByLayer
10
62.0
20
237.557725023
30
0.0
11
63.0
21
236.319239979
31
0.0
0
LINE
5
471
100
AcDbEntity
100
AcDbLine
8
3
62
256
370
-1
6
ByLayer
10
63.0
20
236.319239979
30
0.0
11
64.0
21
235.069691743
31
0.0
0
LINE
5
472
100
AcDbEntity
100
AcDbLine
8
3
62
256
370
-1
6
ByLayer
10
64.0
20
235.069691743
30
0.0
11
65.0
21
233.809460939
31
0.0
0
LINE
5
473
100
AcDbEntity
100
AcDbLine
8
3
62
256
370
-1
6
ByLayer
10
65.0
20
233.809460939
30
0.0
11
66.0
21
232.538931446
31
0.0
0
LINE
5
474
100
AcDbEntity
100
AcDbLine
8
3
62
256
370
-1
6
ByLayer
10
66.0
20
232.538931446
30
0.0
11
67.0
21
231.258490279
31
0.0
0
LINE
5
475
100
AcDbEntity
100
AcDbLine
8
3
62
256
370
-1
6
ByLayer
10
67.0
20
231.258490279
30
0.0
11
68.0
21
229.968527473
31
0.0
0
LINE
5
476
100
AcDbEntity
100
AcDbLine
8
3
62
256
370
-1
6
ByLayer
10
68.0
20
229.968527473
30
0.0
11
69.0
21
228.669435964
31
0.0
0
LINE
5
477
100
AcDbEntity
100
AcDbLine
8
3
62
256
370
-1
6
ByLayer
10
69.0
20
228.669435964
30
0.0
11
70.0
21
227.361611466
31
0.0
0
LINE
5
478
100
AcDbEntity
100
AcDbLine
8
3
62
256
370
-1
6
ByLayer
10
70.0
20
227.361611466
30
0.0
11
71.0
21
226.045452357
31
0.0
0
LINE
5
479
100
AcDbEntity
100
AcDbLine
8
3
62
256
370
-1
6
ByLayer
10
71.0
20
226.045452357
30
0.0
11
72.0
21
224.72135955
31
0.0
0
LINE
5
480
100
AcDbEntity
100
AcDbLine
8
3
62
256
370
-1
6
ByLayer
10
72.0
20
224.72135955
30
0.0
11
73.0
21
223.389736378
31
0.0
0
LINE
5
481
100
AcDbEntity
100
AcDbLine
8
3
62
256
370
-1
6
ByLayer
10
73.0
20
223.389736378
30
0.0
11
74.0
21
222.050988465
31
0.0
0
LINE
5
482
100
AcDbEntity
100
AcDbLine
8
3
62
256
370
-1
6
ByLayer
10
74.0
20
222.050988465
30
0.0
11
75.0
21
220.705523608
31
0.0
0
LINE
5
483
100
AcDbEntity
100
AcDbLine
8
3
62
256
370
-1
6
ByLayer
10
75.0
20
220.705523608
30
0.0
11
76.0
21
219.353751648
31
0.0
0
LINE
5
484
100
AcDbEntity
100
AcDbLine
8
3
62
256
370
-1
6
ByLayer
10
76.0
20
219.353751648
30
0.0
11
77.0
21
217.996084347
31
0.0
0
LINE
5
485
100
AcDbEntity
100
AcDbLine
8
3
62
256
370
-1
6
ByLayer
10
77.0
20
217.996084347
30
0.0
11
78.0
21
216.632935265
31
0.0
0
LINE
5
486
100
AcDbEntity
100
AcDbLine
8
3
62
256
370
-1
6
ByLayer
10
78.0
20
216.632935265
30
0.0
11
79.0
21
215.26471963
31
0.0
0
LINE
5
487
100
AcDbEntity
100
AcDbLine
8
3
62
256
370
-1
6
ByLayer
10
79.0
20
215.26471963
30
0.0
11
80.0
21
213.891854213
31
0.0
0
LINE
5
488
100
AcDbEntity
100
AcDbLine
8
3
62
256
370
-1
6
ByLayer
10
80.0
20
213.891854213
30
0.0
11
81.0
21
212.514757203
31
0.0
0
LINE
5
489
100
AcDbEntity
100
AcDbLine
8
3
62
256
370
-1
6
ByLayer
10
81.0
20
212.514757203
30
0.0
11
82.0
21
211.133848077
31
0.0
0
LINE
5
490
100
AcDbEntity
100
AcDbLine
8
3
62
256
370
-1
6
ByLayer
10
82.0
20
211.133848077
30
0.0
11
83.0
21
209.749547472
31
0.0
0
LINE
5
491
100
AcDbEntity
100
AcDbLine
8
3
62
256
370
-1
6
ByLayer
10
83.0
20
209.749547472
30
0.0
11
84.0
21
208.362277061
31
0.0
0
LINE
5
492
100
AcDbEntity
100
AcDbLine
8
3
62
256
370
-1
6
ByLayer
10
84.0
20
208.362277061
30
0.0
11
85.0
21
206.97245942
31
0.0
0
LINE
5
493
100
AcDbEntity
100
AcDbLine
8
3
62
256
370
-1
6
ByLayer
10
85.0
20
206.97245942
30
0.0
11
86.0
21
205.5805179
31
0.0
0
LINE
5
494
100
AcDbEntity
100
AcDbLine
8
3
62
256
370
-1
6
ByLayer
10
86.0
20
205.5805179
30
0.0
11
87.0
21
204.186876499
31
0.0
0
LINE
5
495
100
AcDbEntity
100
AcDbLine
8
3
62
256
370
-1
6
ByLayer
10
87.0
20
204.186876499
30
0.0
11
88.0
21
202.791959736
31
0.0
0
LINE
5
496
100
AcDbEntity
100
AcDbLine
8
3
62
256
370
-1
6
ByLayer
10
88.0
20
202.791959736
30
0.0
11
89.0
21
201.396192515
31
0.0
0
LINE
5
497
100
AcDbEntity
100
AcDbLine
8
3
62
256
370
-1
6
ByLayer
10
89.0
20
201.396192515
30
0.0
11
90.0
21
200.0
31
0.0
0
LINE
5
498
100
AcDbEntity
100
AcDbLine
8
3
62
256
370
-1
6
ByLayer
10
90.0
20
200.0
30
0.0
11
91.0
21
198.603807485
31
0.0
0
LINE
5
499
100
AcDbEntity
100
AcDbLine
8
3
62
256
370
-1
6
ByLayer
10
91.0
20
198.603807485
30
0.0
11
92.0
21
197.208040264
31
0.0
0
LINE
5
500
100
AcDbEntity
100
AcDbLine
8
3
62
256
370
-1
6
ByLayer
10
92.0
20
197.208040264
30
0.0
11
93.0
21
195.813123501
31
0.0
0
LINE
5
501
100
AcDbEntity
100
AcDbLine
8
3
62
256
370
-1
6
ByLayer
10
93.0
20
195.813123501
30
0.0
11
94.0
21
194.4194821
31
0.0
0
LINE
5
502
100
AcDbEntity
100
AcDbLine
8
3
62
256
370
-1
6
ByLayer
10
94.0
20
194.4194821
30
0.0
11
95.0
21
193.02754058
31
0.0
0
LINE
5
503
100
AcDbEntity
100
AcDbLine
8
3
62
256
370
-1
6
ByLayer
10
95.0
20
193.02754058
30
0.0
11
96.0
21
191.637722939
31
0.0
0
LINE
5
504
100
AcDbEntity
100
AcDbLine
8
3
62
256
370
-1
6
ByLayer
10
96.0
20
191.637722939
30
0.0
11
97.0
21
190.250452528
31
0.0
0
LINE
5
505
100
AcDbEntity
100
AcDbLine
8
3
62
256
370
-1
6
ByLayer
10
97.0
20
190.250452528
30
0.0
11
98.0
21
188.866151923
31
0.0
0
LINE
5
506
100
AcDbEntity
100
AcDbLine
8
3
62
256
370
-1
6
ByLayer
10
98.0
20
188.866151923
30
0.0
11
99.0
21
187.485242797
31
0.0
0
LINE
5
507
100
AcDbEntity
100
AcDbLine
8
3
62
256
370
-1
6
ByLayer
10
99.0
20
187.485242797
30
0.0
11
100.0
21
186.108145787
31
0.0
0
LINE
5
508
100
AcDbEntity
100
AcDbLine
8
3
62
256
370
-1
6
ByLayer
10
100.0
20
186.108145787
30
0.0
11
101.0
21
184.73528037
31
0.0
0
LINE
5
509
100
AcDbEntity
100
AcDbLine
8
3
62
256
370
-1
6
ByLayer
10
101.0
20
184.73528037
30
0.0
11
102.0
21
183.367064735
31
0.0
0
LINE
5
510
100
AcDbEntity
100
AcDbLine
8
3
62
256
370
-1
6
ByLayer
10
102.0
20
183.367064735
30
0.0
11
103.0
21
182.003915653
31
0.0
0
LINE
5
511
100
AcDbEntity
100
AcDbLine
8
3
62
256
370
-1
6
ByLayer
10
103.0
20
182.003915653
30
0.0
11
104.0
21
180.646248352
31
0.0
0
LINE
5
512
100
AcDbEntity
100
AcDbLine
8
3
62
256
370
-1
6
ByLayer
10
104.0
20
180.646248352
30
0.0
11
105.0
21
179.294476392
31
0.0
0
LINE
5
513
100
AcDbEntity
100
AcDbLine
8
3
62
256
370
-1
6
ByLayer
10
105.0
20
179.294476392
30
0.0
11
106.0
21
177.949011535
31
0.0
0
LINE
5
514
100
AcDbEntity
100
AcDbLine
8
3
62
256
370
-1
6
ByLayer
10
106.0
20
177.949011535
30
0.0
11
107.0
21
176.610263622
31
0.0
0
LINE
5
515
100
AcDbEntity
100
AcDbLine
8
3
62
256
370
-1
6
ByLayer
10
107.0
20
176.610263622
30
0.0
11
108.0
21
175.27864045
31
0.0
0
LINE
5
516
100
AcDbEntity
100
AcDbLine
8
3
62
256
370
-1
6
ByLayer
10
108.0
20
175.27864045
30
0.0
11
109.0
21
173.954547643
31
0.0
0
LINE
5
517
100
AcDbEntity
100
AcDbLine
8
3
62
256
370
-1
6
ByLayer
10
109.0
20
173.954547643
30
0.0
11
110.0
21
172.638388534
31
0.0
0
LINE
5
518
100
AcDbEntity
100
AcDbLine
8
3
62
256
370
-1
6
ByLayer
10
110.0
20
172.638388534
30
0.0
11
111.0
21
171.330564036
31
0.0
0
LINE
5
519
100
AcDbEntity
100
AcDbLine
8
3
62
256
370
-1
6
ByLayer
10
111.0
20
171.330564036
30
0.0
11
112.0
21
170.031472527
31
0.0
0
LINE
5
520
100
AcDbEntity
100
AcDbLine
8
3
62
256
370
-1
6
ByLayer
10
112.0
20
170.031472527
30
0.0
11
113.0
21
168.741509721
31
0.0
0
LINE
5
521
100
AcDbEntity
100
AcDbLine
8
3
62
256
370
-1
6
ByLayer
10
113.0
20
168.741509721
30
0.0
11
114.0
21
167.461068554
31
0.0
0
LINE
5
522
100
AcDbEntity
100
AcDbLine
8
3
62
256
370
-1
6
ByLayer
10
114.0
20
167.461068554
30
0.0
11
115.0
21
166.190539061
31
0.0
0
LINE
5
523
100
AcDbEntity
100
AcDbLine
8
3
62
256
370
-1
6
ByLayer
10
115.0
20
166.190539061
30
0.0
11
116.0
21
164.930308257
31
0.0
0
LINE
5
524
100
AcDbEntity
100
AcDbLine
8
3
62
256
370
-1
6
ByLayer
10
116.0
20
164.930308257
30
0.0
11
117.0
21
163.680760021
31
0.0
0
LINE
5
525
100
AcDbEntity
100
AcDbLine
8
3
62
256
370
-1
6
ByLayer
10
117.0
20
163.680760021
30
0.0
11
118.0
21
162.442274977
31
0.0
0
LINE
5
526
100
AcDbEntity
100
AcDbLine
8
3
62
256
370
-1
6
ByLayer
10
118.0
20
162.442274977
30
0.0
11
119.0
21
161.21523038
31
0.0
0
LINE
5
527
100
AcDbEntity
100
AcDbLine
8
3
62
256
370
-1
6
ByLayer
10
119.0
20
161.21523038
30
0.0
11
120.0
21
160.0
31
0.0
0
LINE
5
528
100
AcDbEntity
100
AcDbLine
8
3
62
256
370
-1
6
ByLayer
10
120.0
20
160.0
30
0.0
11
121.0
21
158.796954007
31
0.0
0
LINE
5
529
100
AcDbEntity
100
AcDbLine
8
3
62
256
370
-1
6
ByLayer
10
121.0
20
158.796954007
30
0.0
11
122.0
21
157.606458861
31
0.0
0
LINE
5
530
100
AcDbEntity
100
AcDbLine
8
3
62
256
370
-1
6
ByLayer
10
122.0
20
157.606458861
30
0.0
11
123.0
21
156.428877199
31
0.0
0
LINE
5
531
100
AcDbEntity
100
AcDbLine
8
3
62
256
370
-1
6
ByLayer
10
123.0
20
156.428877199
30
0.0
11
124.0
21
155.264567722
31
0.0
0
LINE
5
532
100
AcDbEntity
100
AcDbLine
8
3
62
256
370
-1
6
ByLayer
10
124.0
20
155.264567722
30
0.0
11
125.0
21
154.113885092
31
0.0
0
LINE
5
533
100
AcDbEntity
100
AcDbLine
8
3
62
256
370
-1
6
ByLayer
10
125.0
20
154.113885092
30
0.0
11
126.0
21
152.977179817
31
0.0
0
LINE
5
534
100
AcDbEntity
100
AcDbLine
8
3
62
256
370
-1
6
ByLayer
10
126.0
20
152.977179817
30
0.0
11
127.0
21
151.854798148
31
0.0
0
LINE
5
535
100
AcDbEntity
100
AcDbLine
8
3
62
256
370
-1
6
ByLayer
10
127.0
20
151.854798148
30
0.0
11
128.0
21
150.747081974
31
0.0
0
LINE
5
536
100
AcDbEntity
100
AcDbLine
8
3
62
256
370
-1
6
ByLayer
10
128.0
20
150.747081974
30
0.0
11
129.0
21
149.654368716
31
0.0
0
LINE
5
537
100
AcDbEntity
100
AcDbLine
8
3
62
256
370
-1
6
ByLayer
10
129.0
20
149.654368716
30
0.0
11
130.0
21
148.576991225
31
0.0
0
LINE
5
538
100
AcDbEntity
100
AcDbLine
8
3
62
256
370
-1
6
ByLayer
10
130.0
20
148.576991225
30
0.0
11
131.0
21
147.515277681
31
0.0
0
LINE
5
539
100
AcDbEntity
100
AcDbLine
8
3
62
256
370
-1
6
ByLayer
10
131.0
20
147.515277681
30
0.0
11
132.0
21
146.469551491
31
0.0
0
LINE
5
540
100
AcDbEntity
100
AcDbLine
8
3
62
256
370
-1
6
ByLayer
10
132.0
20
146.469551491
30
0.0
11
133.0
21
145.440131195
31
0.0
0
LINE
5
541
100
AcDbEntity
100
AcDbLine
8
3
62
256
370
-1
6
ByLayer
10
133.0
20
145.440131195
30
0.0
11
134.0
21
144.427330363
31
0.0
0
LINE
5
542
100
AcDbEntity
100
AcDbLine
8
3
62
256
370
-1
6
ByLayer
10
134.0
20
144.427330363
30
0.0
11
135.0
21
143.431457505
31
0.0
0
LINE
5
543
100
AcDbEntity
100
AcDbLine
8
3
62
256
370
-1
6
ByLayer
10
135.0
20
143.431457505
30
0.0
11
136.0
21
142.452815973
31
0.0
0
LINE
5
544
100
AcDbEntity
100
AcDbLine
8
3
62
256
370
-1
6
ByLayer
10
136.0
20
142.452815973
30
0.0
11
137.0
21
141.491703871
31
0.0
0
LINE
5
545
100
AcDbEntity
100
AcDbLine
8
3
62
256
370
-1
6
ByLayer
10
137.0
20
141.491703871
30
0.0
11
138.0
21
140.548413962
31
0.0
0
LINE
5
546
100
AcDbEntity
100
AcDbLine
8
3
62
256
370
-1
6
ByLayer
10
138.0
20
140.548413962
30
0.0
11
139.0
21
139.623233582
31
0.0
0
LINE
5
547
100
AcDbEntity
100
AcDbLine
8
3
62
256
370
-1
6
ByLayer
10
139.0
20
139.623233582
30
0.0
11
140.0
21
138.716444551
31
0.0
0
LINE
5
548
100
AcDbEntity
100
AcDbLine
8
3
62
256
370
-1
6
ByLayer
10
140.0
20
138.716444551
30
0.0
11
141.0
21
137.828323083
31
0.0
0
LINE
5
549
100
AcDbEntity
100
AcDbLine
8
3
62
256
370
-1
6
ByLayer
10
141.0
20
137.828323083
30
0.0
11
142.0
21
136.959139712
31
0.0
0
LINE
5
550
100
AcDbEntity
100
AcDbLine
8
3
62
256
370
-1
6
ByLayer
10
142.0
20
136.959139712
30
0.0
11
143.0
21
136.109159196
31
0.0
0
LINE
5
551
100
AcDbEntity
100
AcDbLine
8
3
62
256
370
-1
6
ByLayer
10
143.0
20
136.109159196
30
0.0
11
144.0
21
135.27864045
31
0.0
0
LINE
5
552
100
AcDbEntity
100
AcDbLine
8
3
62
256
370
-1
6
ByLayer
10
144.0
20
135.27864045
30
0.0
11
145.0
21
134.467836457
31
0.0
0
LINE
5
553
100
AcDbEntity
100
AcDbLine
8
3
62
256
370
-1
6
ByLayer
10
145.0
20
134.467836457
30
0.0
11
146.0
21
133.676994196
31
0.0
0
LINE
5
554
100
AcDbEntity
100
AcDbLine
8
3
62
256
370
-1
6
ByLayer
10
146.0
20
133.676994196
30
0.0
11
147.0
21
132.906354564
31
0.0
0
LINE
5
555
100
AcDbEntity
100
AcDbLine
8
3
62
256
370
-1
6
ByLayer
10
147.0
20
132.906354564
30
0.0
11
148.0
21
132.156152308
31
0.0
0
LINE
5
556
100
AcDbEntity
100
AcDbLine
8
3
62
256
370
-1
6
ByLayer
10
148.0
20
132.156152308
30
0.0
11
149.0
21
131.426615944
31
0.0
0
LINE
5
557
100
AcDbEntity
100
AcDbLine
8
3
62
256
370
-1
6
ByLayer
10
149.0
20
131.426615944
30
0.0
11
150.0
21
130.717967697
31
0.0
0
LINE
5
558
100
AcDbEntity
100
AcDbLine
8
3
62
256
370
-1
6
ByLayer
10
150.0
20
130.717967697
30
0.0
11
151.0
21
130.030423429
31
0.0
0
LINE
5
559
100
AcDbEntity
100
AcDbLine
8
3
62
256
370
-1
6
ByLayer
10
151.0
20
130.030423429
30
0.0
11
152.0
21
129.364192571
31
0.0
0
LINE
5
560
100
AcDbEntity
100
AcDbLine
8
3
62
256
370
-1
6
ByLayer
10
152.0
20
129.364192571
30
0.0
11
153.0
21
128.719478065
31
0.0
0
LINE
5
561
100
AcDbEntity
100
AcDbLine
8
3
62
256
370
-1
6
ByLayer
10
153.0
20
128.719478065
30
0.0
11
154.0
21
128.096476296
31
0.0
0
LINE
5
562
100
AcDbEntity
100
AcDbLine
8
3
62
256
370
-1
6
ByLayer
10
154.0
20
128.096476296
30
0.0
11
155.0
21
127.495377037
31
0.0
0
LINE
5
563
100
AcDbEntity
100
AcDbLine
8
3
62
256
370
-1
6
ByLayer
10
155.0
20
127.495377037
30
0.0
11
156.0
21
126.916363389
31
0.0
0
LINE
5
564
100
AcDbEntity
100
AcDbLine
8
3
62
256
370
-1
6
ByLayer
10
156.0
20
126.916363389
30
0.0
11
157.0
21
126.359611724
31
0.0
0
LINE
5
565
100
AcDbEntity
100
AcDbLine
8
3
62
256
370
-1
6
ByLayer
10
157.0
20
126.359611724
30
0.0
11
158.0
21
125.825291635
31
0.0
0
LINE
5
566
100
AcDbEntity
100
AcDbLine
8
3
62
256
370
-1
6
ByLayer
10
158.0
20
125.825291635
30
0.0
11
159.0
21
125.31356588
31
0.0
0
LINE
5
567
100
AcDbEntity
100
AcDbLine
8
3
62
256
370
-1
6
ByLayer
10
159.0
20
125.31356588
30
0.0
11
160.0
21
124.824590337
31
0.0
0
LINE
5
568
100
AcDbEntity
100
AcDbLine
8
3
62
256
370
-1
6
ByLayer
10
160.0
20
124.824590337
30
0.0
11
161.0
21
124.358513952
31
0.0
0
LINE
5
569
100
AcDbEntity
100
AcDbLine
8
3
62
256
370
-1
6
ByLayer
10
161.0
20
124.358513952
30
0.0
11
162.0
21
123.915478696
31
0.0
0
LINE
5
570
100
AcDbEntity
100
AcDbLine
8
3
62
256
370
-1
6
ByLayer
10
162.0
20
123.915478696
30
0.0
11
163.0
21
123.495619523
31
0.0
0
LINE
5
571
100
AcDbEntity
100
AcDbLine
8
3
62
256
370
-1
6
ByLayer
10
163.0
20
123.495619523
30
0.0
11
164.0
21
123.099064325
31
0.0
0
LINE
5
572
100
AcDbEntity
100
AcDbLine
8
3
62
256
370
-1
6
ByLayer
10
164.0
20
123.099064325
30
0.0
11
165.0
21
122.725933897
31
0.0
0
LINE
5
573
100
AcDbEntity
100
AcDbLine
8
3
62
256
370
-1
6
ByLayer
10
165.0
20
122.725933897
30
0.0
11
166.0
21
122.376341898
31
0.0
0
LINE
5
574
100
AcDbEntity
100
AcDbLine
8
3
62
256
370
-1
6
ByLayer
10
166.0
20
122.376341898
30
0.0
11
167.0
21
122.050394817
31
0.0
0
LINE
5
575
100
AcDbEntity
100
AcDbLine
8
3
62
256
370
-1
6
ByLayer
10
167.0
20
122.050394817
30
0.0
11
168.0
21
121.748191941
31
0.0
0
LINE
5
576
100
AcDbEntity
100
AcDbLine
8
3
62
256
370
-1
6
ByLayer
10
168.0
20
121.748191941
30
0.0
11
169.0
21
121.469825324
31
0.0
0
LINE
5
577
100
AcDbEntity
100
AcDbLine
8
3
62
256
370
-1
6
ByLayer
10
169.0
20
121.469825324
30
0.0
11
170.0
21
121.215379759
31
0.0
0
LINE
5
578
100
AcDbEntity
100
AcDbLine
8
3
62
256
370
-1
6
ByLayer
10
170.0
20
121.215379759
30
0.0
11
171.0
21
120.984932752
31
0.0
0
LINE
5
579
100
AcDbEntity
100
AcDbLine
8
3
62
256
370
-1
6
ByLayer
10
171.0
20
120.984932752
30
0.0
11
172.0
21
120.778554501
31
0.0
0
LINE
5
580
100
AcDbEntity
100
AcDbLine
8
3
62
256
370
-1
6
ByLayer
10
172.0
20
120.778554501
30
0.0
11
173.0
21
120.596307869
31
0.0
0
LINE
5
581
100
AcDbEntity
100
AcDbLine
8
3
62
256
370
-1
6
ByLayer
10
173.0
20
120.596307869
30
0.0
11
174.0
21
120.438248371
31
0.0
0
LINE
5
582
100
AcDbEntity
100
AcDbLine
8
3
62
256
370
-1
6
ByLayer
10
174.0
20
120.438248371
30
0.0
11
175.0
21
120.304424153
31
0.0
0
LINE
5
583
100
AcDbEntity
100
AcDbLine
8
3
62
256
370
-1
6
ByLayer
10
175.0
20
120.304424153
30
0.0
11
176.0
21
120.194875979
31
0.0
0
LINE
5
584
100
AcDbEntity
100
AcDbLine
8
3
62
256
370
-1
6
ByLayer
10
176.0
20
120.194875979
30
0.0
11
177.0
21
120.10963722
31
0.0
0
LINE
5
585
100
AcDbEntity
100
AcDbLine
8
3
62
256
370
-1
6
ByLayer
10
177.0
20
120.10963722
30
0.0
11
178.0
21
120.048733838
31
0.0
0
LINE
5
586
100
AcDbEntity
100
AcDbLine
8
3
62
256
370
-1
6
ByLayer
10
178.0
20
120.048733838
30
0.0
11
179.0
21
120.012184387
31
0.0
0
LINE
5
587
100
AcDbEntity
100
AcDbLine
8
3
62
256
370
-1
6
ByLayer
10
179.0
20
120.012184387
30
0.0
11
180.0
21
120.0
31
0.0
0
LINE
5
588
100
AcDbEntity
100
AcDbLine
8
3
62
256
370
-1
6
ByLayer
10
180.0
20
120.0
30
0.0
11
181.0
21
120.012184387
31
0.0
0
LINE
5
589
100
AcDbEntity
100
AcDbLine
8
3
62
256
370
-1
6
ByLayer
10
181.0
20
120.012184387
30
0.0
11
182.0
21
120.048733838
31
0.0
0
LINE
5
590
100
AcDbEntity
100
AcDbLine
8
3
62
256
370
-1
6
ByLayer
10
182.0
20
120.048733838
30
0.0
11
183.0
21
120.10963722
31
0.0
0
LINE
5
591
100
AcDbEntity
100
AcDbLine
8
3
62
256
370
-1
6
ByLayer
10
183.0
20
120.10963722
30
0.0
11
184.0
21
120.194875979
31
0.0
0
LINE
5
592
100
AcDbEntity
100
AcDbLine
8
3
62
256
370
-1
6
ByLayer
10
184.0
20
120.194875979
30
0.0
11
185.0
21
120.304424153
31
0.0
0
LINE
5
593
100
AcDbEntity
100
AcDbLine
8
3
62
256
370
-1
6
ByLayer
10
185.0
20
120.304424153
30
0.0
11
186.0
21
120.438248371
31
0.0
0
LINE
5
594
100
AcDbEntity
100
AcDbLine
8
3
62
256
370
-1
6
ByLayer
10
186.0
20
120.438248371
30
0.0
11
187.0
21
120.596307869
31
0.0
0
LINE
5
595
100
AcDbEntity
100
AcDbLine
8
3
62
256
370
-1
6
ByLayer
10
187.0
20
120.596307869
30
0.0
11
188.0
21
120.778554501
31
0.0
0
LINE
5
596
100
AcDbEntity
100
AcDbLine
8
3
62
256
370
-1
6
ByLayer
10
188.0
20
120.778554501
30
0.0
11
189.0
21
120.984932752
31
0.0
0
LINE
5
597
100
AcDbEntity
100
AcDbLine
8
3
62
256
370
-1
6
ByLayer
10
189.0
20
120.984932752
30
0.0
11
190.0
21
121.215379759
31
0.0
0
LINE
5
598
100
AcDbEntity
100
AcDbLine
8
3
62
256
370
-1
6
ByLayer
10
190.0
20
121.215379759
30
0.0
11
191.0
21
121.469825324
31
0.0
0
LINE
5
599
100
AcDbEntity
100
AcDbLine
8
3
62
256
370
-1
6
ByLayer
10
191.0
20
121.469825324
30
0.0
11
192.0
21
121.748191941
31
0.0
0
LINE
5
600
100
AcDbEntity
100
AcDbLine
8
3
62
256
370
-1
6
ByLayer
10
192.0
20
121.748191941
30
0.0
11
193.0
21
122.050394817
31
0.0
0
LINE
5
601
100
AcDbEntity
100
AcDbLine
8
3
62
256
370
-1
6
ByLayer
10
193.0
20
122.050394817
30
0.0
11
194.0
21
122.376341898
31
0.0
0
LINE
5
602
100
AcDbEntity
100
AcDbLine
8
3
62
256
370
-1
6
ByLayer
10
194.0
20
122.376341898
30
0.0
11
195.0
21
122.725933897
31
0.0
0
LINE
5
603
100
AcDbEntity
100
AcDbLine
8
3
62
256
370
-1
6
ByLayer
10
195.0
20
122.725933897
30
0.0
11
196.0
21
123.099064325
31
0.0
0
LINE
5
604
100
AcDbEntity
100
AcDbLine
8
3
62
256
370
-1
6
ByLayer
10
196.0
20
123.099064325
30
0.0
11
197.0
21
123.495619523
31
0.0
0
LINE
5
605
100
AcDbEntity
100
AcDbLine
8
3
62
256
370
-1
6
ByLayer
10
197.0
20
123.495619523
30
0.0
11
198.0
21
123.915478696
31
0.0
0
LINE
5
606
100
AcDbEntity
100
AcDbLine
8
3
62
256
370
-1
6
ByLayer
10
198.0
20
123.915478696
30
0.0
11
199.0
21
124.358513952
31
0.0
0
LINE
5
607
100
AcDbEntity
100
AcDbLine
8
3
62
256
370
-1
6
ByLayer
10
199.0
20
124.358513952
30
0.0
11
200.0
21
124.824590337
31
0.0
0
LINE
5
608
100
AcDbEntity
100
AcDbLine
8
3
62
256
370
-1
6
ByLayer
10
200.0
20
124.824590337
30
0.0
11
201.0
21
125.31356588
31
0.0
0
LINE
5
609
100
AcDbEntity
100
AcDbLine
8
3
62
256
370
-1
6
ByLayer
10
201.0
20
125.31356588
30
0.0
11
202.0
21
125.825291635
31
0.0
0
LINE
5
610
100
AcDbEntity
100
AcDbLine
8
3
62
256
370
-1
6
ByLayer
10
202.0
20
125.825291635
30
0.0
11
203.0
21
126.359611724
31
0.0
0
LINE
5
611
100
AcDbEntity
100
AcDbLine
8
3
62
256
370
-1
6
ByLayer
10
203.0
20
126.359611724
30
0.0
11
204.0
21
126.916363389
31
0.0
0
LINE
5
612
100
AcDbEntity
100
AcDbLine
8
3
62
256
370
-1
6
ByLayer
10
204.0
20
126.916363389
30
0.0
11
205.0
21
127.495377037
31
0.0
0
LINE
5
613
100
AcDbEntity
100
AcDbLine
8
3
62
256
370
-1
6
ByLayer
10
205.0
20
127.495377037
30
0.0
11
206.0
21
128.096476296
31
0.0
0
LINE
5
614
100
AcDbEntity
100
AcDbLine
8
3
62
256
370
-1
6
ByLayer
10
206.0
20
128.096476296
30
0.0
11
207.0
21
128.719478065
31
0.0
0
LINE
5
615
100
AcDbEntity
100
AcDbLine
8
3
62
256
370
-1
6
ByLayer
10
207.0
20
128.719478065
30
0.0
11
208.0
21
129.364192571
31
0.0
0
LINE
5
616
100
AcDbEntity
100
AcDbLine
8
3
62
256
370
-1
6
ByLayer
10
208.0
20
129.364192571
30
0.0
11
209.0
21
130.030423429
31
0.0
0
LINE
5
617
100
AcDbEntity
100
AcDbLine
8
3
62
256
370
-1
6
ByLayer
10
209.0
20
130.030423429
30
0.0
11
210.0
21
130.717967697
31
0.0
0
LINE
5
618
100
AcDbEntity
100
AcDbLine
8
3
62
256
370
-1
6
ByLayer
10
210.0
20
130.717967697
30
0.0
11
211.0
21
131.426615944
31
0.0
0
LINE
5
619
100
AcDbEntity
100
AcDbLine
8
3
62
256
370
-1
6
ByLayer
10
211.0
20
131.426615944
30
0.0
11
212.0
21
132.156152308
31
0.0
0
LINE
5
620
100
AcDbEntity
100
AcDbLine
8
3
62
256
370
-1
6
ByLayer
10
212.0
20
132.156152308
30
0.0
11
213.0
21
132.906354564
31
0.0
0
LINE
5
621
100
AcDbEntity
100
AcDbLine
8
3
62
256
370
-1
6
ByLayer
10
213.0
20
132.906354564
30
0.0
11
214.0
21
133.676994196
31
0.0
0
LINE
5
622
100
AcDbEntity
100
AcDbLine
8
3
62
256
370
-1
6
ByLayer
10
214.0
20
133.676994196
30
0.0
11
215.0
21
134.467836457
31
0.0
0
LINE
5
623
100
AcDbEntity
100
AcDbLine
8
3
62
256
370
-1
6
ByLayer
10
215.0
20
134.467836457
30
0.0
11
216.0
21
135.27864045
31
0.0
0
LINE
5
624
100
AcDbEntity
100
AcDbLine
8
3
62
256
370
-1
6
ByLayer
10
216.0
20
135.27864045
30
0.0
11
217.0
21
136.109159196
31
0.0
0
LINE
5
625
100
AcDbEntity
100
AcDbLine
8
3
62
256
370
-1
6
ByLayer
10
217.0
20
136.109159196
30
0.0
11
218.0
21
136.959139712
31
0.0
0
LINE
5
626
100
AcDbEntity
100
AcDbLine
8
3
62
256
370
-1
6
ByLayer
10
218.0
20
136.959139712
30
0.0
11
219.0
21
137.828323083
31
0.0
0
LINE
5
627
100
AcDbEntity
100
AcDbLine
8
3
62
256
370
-1
6
ByLayer
10
219.0
20
137.828323083
30
0.0
11
220.0
21
138.716444551
31
0.0
0
LINE
5
628
100
AcDbEntity
100
AcDbLine
8
3
62
256
370
-1
6
ByLayer
10
220.0
20
138.716444551
30
0.0
11
221.0
21
139.623233582
31
0.0
0
LINE
5
629
100
AcDbEntity
100
AcDbLine
8
3
62
256
370
-1
6
ByLayer
10
221.0
20
139.623233582
30
0.0
11
222.0
21
140.548413962
31
0.0
0
LINE
5
630
100
AcDbEntity
100
AcDbLine
8
3
62
256
370
-1
6
ByLayer
10
222.0
20
140.548413962
30
0.0
11
223.0
21
141.491703871
31
0.0
0
LINE
5
631
100
AcDbEntity
100
AcDbLine
8
3
62
256
370
-1
6
ByLayer
10
223.0
20
141.491703871
30
0.0
11
224.0
21
142.452815973
31
0.0
0
LINE
5
632
100
AcDbEntity
100
AcDbLine
8
3
62
256
370
-1
6
ByLayer
10
224.0
20
142.452815973
30
0.0
11
225.0
21
143.431457505
31
0.0
0
LINE
5
633
100
AcDbEntity
100
AcDbLine
8
3
62
256
370
-1
6
ByLayer
10
225.0
20
143.431457505
30
0.0
11
226.0
21
144.427330363
31
0.0
0
LINE
5
634
100
AcDbEntity
100
AcDbLine
8
3
62
256
370
-1
6
ByLayer
10
226.0
20
144.427330363
30
0.0
11
227.0
21
145.440131195
31
0.0
0
LINE
5
635
100
AcDbEntity
100
AcDbLine
8
3
62
256
370
-1
6
ByLayer
10
227.0
20
145.440131195
30
0.0
11
228.0
21
146.469551491
31
0.0
0
LINE
5
636
100
AcDbEntity
100
AcDbLine
8
3
62
256
370
-1
6
ByLayer
10
228.0
20
146.469551491
30
0.0
11
229.0
21
147.515277681
31
0.0
0
LINE
5
637
100
AcDbEntity
100
AcDbLine
8
3
62
256
370
-1
6
ByLayer
10
229.0
20
147.515277681
30
0.0
11
230.0
21
148.576991225
31
0.0
0
LINE
5
638
100
AcDbEntity
100
AcDbLine
8
3
62
256
370
-1
6
ByLayer
10
230.0
20
148.576991225
30
0.0
11
231.0
21
149.654368716
31
0.0
0
LINE
5
639
100
AcDbEntity
100
AcDbLine
8
3
62
256
370
-1
6
ByLayer
10
231.0
20
149.654368716
30
0.0
11
232.0
21
150.747081974
31
0.0
0
LINE
5
640
100
AcDbEntity
100
AcDbLine
8
3
62
256
370
-1
6
ByLayer
10
232.0
20
150.747081974
30
0.0
11
233.0
21
151.854798148
31
0.0
0
LINE
5
641
100
AcDbEntity
100
AcDbLine
8
3
62
256
370
-1
6
ByLayer
10
233.0
20
151.854798148
30
0.0
11
234.0
21
152.977179817
31
0.0
0
LINE
5
642
100
AcDbEntity
100
AcDbLine
8
3
62
256
370
-1
6
ByLayer
10
234.0
20
152.977179817
30
0.0
11
235.0
21
154.113885092
31
0.0
0
LINE
5
643
100
AcDbEntity
100
AcDbLine
8
3
62
256
370
-1
6
ByLayer
10
235.0
20
154.113885092
30
0.0
11
236.0
21
155.264567722
31
0.0
0
LINE
5
644
100
AcDbEntity
100
AcDbLine
8
3
62
256
370
-1
6
ByLayer
10
236.0
20
155.264567722
30
0.0
11
237.0
21
156.428877199
31
0.0
0
LINE
5
645
100
AcDbEntity
100
AcDbLine
8
3
62
256
370
-1
6
ByLayer
10
237.0
20
156.428877199
30
0.0
11
238.0
21
157.606458861
31
0.0
0
LINE
5
646
100
AcDbEntity
100
AcDbLine
8
3
62
256
370
-1
6
ByLayer
10
238.0
20
157.606458861
30
0.0
11
239.0
21
158.796954007
31
0.0
0
LINE
5
647
100
AcDbEntity
100
AcDbLine
8
3
62
256
370
-1
6
ByLayer
10
239.0
20
158.796954007
30
0.0
11
240.0
21
160.0
31
0.0
0
LINE
5
648
100
AcDbEntity
100
AcDbLine
8
3
62
256
370
-1
6
ByLayer
10
240.0
20
160.0
30
0.0
11
241.0
21
161.21523038
31
0.0
0
LINE
5
649
100
AcDbEntity
100
AcDbLine
8
3
62
256
370
-1
6
ByLayer
10
241.0
20
161.21523038
30
0.0
11
242.0
21
162.442274977
31
0.0
0
LINE
5
650
100
AcDbEntity
100
AcDbLine
8
3
62
256
370
-1
6
ByLayer
10
242.0
20
162.442274977
30
0.0
11
243.0
21
163.680760021
31
0.0
0
LINE
5
651
100
AcDbEntity
100
AcDbLine
8
3
62
256
370
-1
6
ByLayer
10
243.0
20
163.680760021
30
0.0
11
244.0
21
164.930308257
31
0.0
0
LINE
5
652
100
AcDbEntity
100
AcDbLine
8
3
62
256
370
-1
6
ByLayer
10
244.0
20
164.930308257
30
0.0
11
245.0
21
166.190539061
31
0.0
0
LINE
5
653
100
AcDbEntity
100
AcDbLine
8
3
62
256
370
-1
6
ByLayer
10
245.0
20
166.190539061
30
0.0
11
246.0
21
167.461068554
31
0.0
0
LINE
5
654
100
AcDbEntity
100
AcDbLine
8
3
62
256
370
-1
6
ByLayer
10
246.0
20
167.461068554
30
0.0
11
247.0
21
168.741509721
31
0.0
0
LINE
5
655
100
AcDbEntity
100
AcDbLine
8
3
62
256
370
-1
6
ByLayer
10
247.0
20
168.741509721
30
0.0
11
248.0
21
170.031472527
31
0.0
0
LINE
5
656
100
AcDbEntity
100
AcDbLine
8
3
62
256
370
-1
6
ByLayer
10
248.0
20
170.031472527
30
0.0
11
249.0
21
171.330564036
31
0.0
0
LINE
5
657
100
AcDbEntity
100
AcDbLine
8
3
62
256
370
-1
6
ByLayer
10
249.0
20
171.330564036
30
0.0
11
250.0
21
172.638388534
31
0.0
0
LINE
5
658
100
AcDbEntity
100
AcDbLine
8
3
62
256
370
-1
6
ByLayer
10
250.0
20
172.638388534
30
0.0
11
251.0
21
173.954547643
31
0.0
0
LINE
5
659
100
AcDbEntity
100
AcDbLine
8
3
62
256
370
-1
6
ByLayer
10
251.0
20
173.954547643
30
0.0
11
252.0
21
175.27864045
31
0.0
0
LINE
5
660
100
AcDbEntity
100
AcDbLine
8
3
62
256
370
-1
6
ByLayer
10
252.0
20
175.27864045
30
0.0
11
253.0
21
176.610263622
31
0.0
0
LINE
5
661
100
AcDbEntity
100
AcDbLine
8
3
62
256
370
-1
6
ByLayer
10
253.0
20
176.610263622
30
0.0
11
254.0
21
177.949011535
31
0.0
0
LINE
5
662
100
AcDbEntity
100
AcDbLine
8
3
62
256
370
-1
6
ByLayer
10
254.0
20
177.949011535
30
0.0
11
255.0
21
179.294476392
31
0.0
0
LINE
5
663
100
AcDbEntity
100
AcDbLine
8
3
62
256
370
-1
6
ByLayer
10
255.0
20
179.294476392
30
0.0
11
256.0
21
180.646248352
31
0.0
0
LINE
5
664
100
AcDbEntity
100
AcDbLine
8
3
62
256
370
-1
6
ByLayer
10
256.0
20
180.646248352
30
0.0
11
257.0
21
182.003915653
31
0.0
0
LINE
5
665
100
AcDbEntity
100
AcDbLine
8
3
62
256
370
-1
6
ByLayer
10
257.0
20
182.003915653
30
0.0
11
258.0
21
183.367064735
31
0.0
0
LINE
5
666
100
AcDbEntity
100
AcDbLine
8
3
62
256
370
-1
6
ByLayer
10
258.0
20
183.367064735
30
0.0
11
259.0
21
184.73528037
31
0.0
0
LINE
5
667
100
AcDbEntity
100
AcDbLine
8
3
62
256
370
-1
6
ByLayer
10
259.0
20
184.73528037
30
0.0
11
260.0
21
186.108145787
31
0.0
0
LINE
5
668
100
AcDbEntity
100
AcDbLine
8
3
62
256
370
-1
6
ByLayer
10
260.0
20
186.108145787
30
0.0
11
261.0
21
187.485242797
31
0.0
0
LINE
5
669
100
AcDbEntity
100
AcDbLine
8
3
62
256
370
-1
6
ByLayer
10
261.0
20
187.485242797
30
0.0
11
262.0
21
188.866151923
31
0.0
0
LINE
5
670
100
AcDbEntity
100
AcDbLine
8
3
62
256
370
-1
6
ByLayer
10
262.0
20
188.866151923
30
0.0
11
263.0
21
190.250452528
31
0.0
0
LINE
5
671
100
AcDbEntity
100
AcDbLine
8
3
62
256
370
-1
6
ByLayer
10
263.0
20
190.250452528
30
0.0
11
264.0
21
191.637722939
31
0.0
0
LINE
5
672
100
AcDbEntity
100
AcDbLine
8
3
62
256
370
-1
6
ByLayer
10
264.0
20
191.637722939
30
0.0
11
265.0
21
193.02754058
31
0.0
0
LINE
5
673
100
AcDbEntity
100
AcDbLine
8
3
62
256
370
-1
6
ByLayer
10
265.0
20
193.02754058
30
0.0
11
266.0
21
194.4194821
31
0.0
0
LINE
5
674
100
AcDbEntity
100
AcDbLine
8
3
62
256
370
-1
6
ByLayer
10
266.0
20
194.4194821
30
0.0
11
267.0
21
195.813123501
31
0.0
0
LINE
5
675
100
AcDbEntity
100
AcDbLine
8
3
62
256
370
-1
6
ByLayer
10
267.0
20
195.813123501
30
0.0
11
268.0
21
197.208040264
31
0.0
0
LINE
5
676
100
AcDbEntity
100
AcDbLine
8
3
62
256
370
-1
6
ByLayer
10
268.0
20
197.208040264
30
0.0
11
269.0
21
198.603807485
31
0.0
0
LINE
5
677
100
AcDbEntity
100
AcDbLine
8
3
62
256
370
-1
6
ByLayer
10
269.0
20
198.603807485
30
0.0
11
270.0
21
200.0
31
0.0
0
LINE
5
678
100
AcDbEntity
100
AcDbLine
8
3
62
256
370
-1
6
ByLayer
10
270.0
20
200.0
30
0.0
11
271.0
21
201.396192515
31
0.0
0
LINE
5
679
100
AcDbEntity
100
AcDbLine
8
3
62
256
370
-1
6
ByLayer
10
271.0
20
201.396192515
30
0.0
11
272.0
21
202.791959736
31
0.0
0
LINE
5
680
100
AcDbEntity
100
AcDbLine
8
3
62
256
370
-1
6
ByLayer
10
272.0
20
202.791959736
30
0.0
11
273.0
21
204.186876499
31
0.0
0
LINE
5
681
100
AcDbEntity
100
AcDbLine
8
3
62
256
370
-1
6
ByLayer
10
273.0
20
204.186876499
30
0.0
11
274.0
21
205.5805179
31
0.0
0
LINE
5
682
100
AcDbEntity
100
AcDbLine
8
3
62
256
370
-1
6
ByLayer
10
274.0
20
205.5805179
30
0.0
11
275.0
21
206.97245942
31
0.0
0
LINE
5
683
100
AcDbEntity
100
AcDbLine
8
3
62
256
370
-1
6
ByLayer
10
275.0
20
206.97245942
30
0.0
11
276.0
21
208.362277061
31
0.0
0
LINE
5
684
100
AcDbEntity
100
AcDbLine
8
3
62
256
370
-1
6
ByLayer
10
276.0
20
208.362277061
30
0.0
11
277.0
21
209.749547472
31
0.0
0
LINE
5
685
100
AcDbEntity
100
AcDbLine
8
3
62
256
370
-1
6
ByLayer
10
277.0
20
209.749547472
30
0.0
11
278.0
21
211.133848077
31
0.0
0
LINE
5
686
100
AcDbEntity
100
AcDbLine
8
3
62
256
370
-1
6
ByLayer
10
278.0
20
211.133848077
30
0.0
11
279.0
21
212.514757203
31
0.0
0
LINE
5
687
100
AcDbEntity
100
AcDbLine
8
3
62
256
370
-1
6
ByLayer
10
279.0
20
212.514757203
30
0.0
11
280.0
21
213.891854213
31
0.0
0
LINE
5
688
100
AcDbEntity
100
AcDbLine
8
3
62
256
370
-1
6
ByLayer
10
280.0
20
213.891854213
30
0.0
11
281.0
21
215.26471963
31
0.0
0
LINE
5
689
100
AcDbEntity
100
AcDbLine
8
3
62
256
370
-1
6
ByLayer
10
281.0
20
215.26471963
30
0.0
11
282.0
21
216.632935265
31
0.0
0
LINE
5
690
100
AcDbEntity
100
AcDbLine
8
3
62
256
370
-1
6
ByLayer
10
282.0
20
216.632935265
30
0.0
11
283.0
21
217.996084347
31
0.0
0
LINE
5
691
100
AcDbEntity
100
AcDbLine
8
3
62
256
370
-1
6
ByLayer
10
283.0
20
217.996084347
30
0.0
11
284.0
21
219.353751648
31
0.0
0
LINE
5
692
100
AcDbEntity
100
AcDbLine
8
3
62
256
370
-1
6
ByLayer
10
284.0
20
219.353751648
30
0.0
11
285.0
21
220.705523608
31
0.0
0
LINE
5
693
100
AcDbEntity
100
AcDbLine
8
3
62
256
370
-1
6
ByLayer
10
285.0
20
220.705523608
30
0.0
11
286.0
21
222.050988465
31
0.0
0
LINE
5
694
100
AcDbEntity
100
AcDbLine
8
3
62
256
370
-1
6
ByLayer
10
286.0
20
222.050988465
30
0.0
11
287.0
21
223.389736378
31
0.0
0
LINE
5
695
100
AcDbEntity
100
AcDbLine
8
3
62
256
370
-1
6
ByLayer
10
287.0
20
223.389736378
30
0.0
11
288.0
21
224.72135955
31
0.0
0
LINE
5
696
100
AcDbEntity
100
AcDbLine
8
3
62
256
370
-1
6
ByLayer
10
288.0
20
224.72135955
30
0.0
11
289.0
21
226.045452357
31
0.0
0
LINE
5
697
100
AcDbEntity
100
AcDbLine
8
3
62
256
370
-1
6
ByLayer
10
289.0
20
226.045452357
30
0.0
11
290.0
21
227.361611466
31
0.0
0
LINE
5
698
100
AcDbEntity
100
AcDbLine
8
3
62
256
370
-1
6
ByLayer
10
290.0
20
227.361611466
30
0.0
11
291.0
21
228.669435964
31
0.0
0
LINE
5
699
100
AcDbEntity
100
AcDbLine
8
3
62
256
370
-1
6
ByLayer
10
291.0
20
228.669435964
30
0.0
11
292.0
21
229.968527473
31
0.0
0
LINE
5
700
100
AcDbEntity
100
AcDbLine
8
3
62
256
370
-1
6
ByLayer
10
292.0
20
229.968527473
30
0.0
11
293.0
21
231.258490279
31
0.0
0
LINE
5
701
100
AcDbEntity
100
AcDbLine
8
3
62
256
370
-1
6
ByLayer
10
293.0
20
231.258490279
30
0.0
11
294.0
21
232.538931446
31
0.0
0
LINE
5
702
100
AcDbEntity
100
AcDbLine
8
3
62
256
370
-1
6
ByLayer
10
294.0
20
232.538931446
30
0.0
11
295.0
21
233.809460939
31
0.0
0
LINE
5
703
100
AcDbEntity
100
AcDbLine
8
3
62
256
370
-1
6
ByLayer
10
295.0
20
233.809460939
30
0.0
11
296.0
21
235.069691743
31
0.0
0
LINE
5
704
100
AcDbEntity
100
AcDbLine
8
3
62
256
370
-1
6
ByLayer
10
296.0
20
235.069691743
30
0.0
11
297.0
21
236.319239979
31
0.0
0
LINE
5
705
100
AcDbEntity
100
AcDbLine
8
3
62
256
370
-1
6
ByLayer
10
297.0
20
236.319239979
30
0.0
11
298.0
21
237.557725023
31
0.0
0
LINE
5
706
100
AcDbEntity
100
AcDbLine
8
3
62
256
370
-1
6
ByLayer
10
298.0
20
237.557725023
30
0.0
11
299.0
21
238.78476962
31
0.0
0
LINE
5
707
100
AcDbEntity
100
AcDbLine
8
3
62
256
370
-1
6
ByLayer
10
299.0
20
238.78476962
30
0.0
11
300.0
21
240.0
31
0.0
0
LINE
5
708
100
AcDbEntity
100
AcDbLine
8
3
62
256
370
-1
6
ByLayer
10
300.0
20
240.0
30
0.0
11
301.0
21
241.203045993
31
0.0
0
LINE
5
709
100
AcDbEntity
100
AcDbLine
8
3
62
256
370
-1
6
ByLayer
10
301.0
20
241.203045993
30
0.0
11
302.0
21
242.393541139
31
0.0
0
LINE
5
710
100
AcDbEntity
100
AcDbLine
8
3
62
256
370
-1
6
ByLayer
10
302.0
20
242.393541139
30
0.0
11
303.0
21
243.571122801
31
0.0
0
LINE
5
711
100
AcDbEntity
100
AcDbLine
8
3
62
256
370
-1
6
ByLayer
10
303.0
20
243.571122801
30
0.0
11
304.0
21
244.735432278
31
0.0
0
LINE
5
712
100
AcDbEntity
100
AcDbLine
8
3
62
256
370
-1
6
ByLayer
10
304.0
20
244.735432278
30
0.0
11
305.0
21
245.886114908
31
0.0
0
LINE
5
713
100
AcDbEntity
100
AcDbLine
8
3
62
256
370
-1
6
ByLayer
10
305.0
20
245.886114908
30
0.0
11
306.0
21
247.022820183
31
0.0
0
LINE
5
714
100
AcDbEntity
100
AcDbLine
8
3
62
256
370
-1
6
ByLayer
10
306.0
20
247.022820183
30
0.0
11
307.0
21
248.145201852
31
0.0
0
LINE
5
715
100
AcDbEntity
100
AcDbLine
8
3
62
256
370
-1
6
ByLayer
10
307.0
20
248.145201852
30
0.0
11
308.0
21
249.252918026
31
0.0
0
LINE
5
716
100
AcDbEntity
100
AcDbLine
8
3
62
256
370
-1
6
ByLayer
10
308.0
20
249.252918026
30
0.0
11
309.0
21
250.345631284
31
0.0
0
LINE
5
717
100
AcDbEntity
100
AcDbLine
8
3
62
256
370
-1
6
ByLayer
10
309.0
20
250.345631284
30
0.0
11
310.0
21
251.423008775
31
0.0
0
LINE
5
718
100
AcDbEntity
100
AcDbLine
8
3
62
256
370
-1
6
ByLayer
10
310.0
20
251.423008775
30
0.0
11
311.0
21
252.484722319
31
0.0
0
LINE
5
719
100
AcDbEntity
100
AcDbLine
8
3
62
256
370
-1
6
ByLayer
10
311.0
20
252.484722319
30
0.0
11
312.0
21
253.530448509
31
0.0
0
LINE
5
720
100
AcDbEntity
100
AcDbLine
8
3
62
256
370
-1
6
ByLayer
10
312.0
20
253.530448509
30
0.0
11
313.0
21
254.559868805
31
0.0
0
LINE
5
721
100
AcDbEntity
100
AcDbLine
8
3
62
256
370
-1
6
ByLayer
10
313.0
20
254.559868805
30
0.0
11
314.0
21
255.572669637
31
0.0
0
LINE
5
722
100
AcDbEntity
100
AcDbLine
8
3
62
256
370
-1
6
ByLayer
10
314.0
20
255.572669637
30
0.0
11
315.0
21
256.568542495
31
0.0
0
LINE
5
723
100
AcDbEntity
100
AcDbLine
8
3
62
256
370
-1
6
ByLayer
10
315.0
20
256.568542495
30
0.0
11
316.0
21
257.547184027
31
0.0
0
LINE
5
724
100
AcDbEntity
100
AcDbLine
8
3
62
256
370
-1
6
ByLayer
10
316.0
20
257.547184027
30
0.0
11
317.0
21
258.50829613
31
0.0
0
LINE
5
725
100
AcDbEntity
100
AcDbLine
8
3
62
256
370
-1
6
ByLayer
10
317.0
20
258.50829613
30
0.0
11
318.0
21
259.451586038
31
0.0
0
LINE
5
726
100
AcDbEntity
100
AcDbLine
8
3
62
256
370
-1
6
ByLayer
10
318.0
20
259.451586038
30
0.0
11
319.0
21
260.376766418
31
0.0
0
LINE
5
727
100
AcDbEntity
100
AcDbLine
8
3
62
256
370
-1
6
ByLayer
10
319.0
20
260.376766418
30
0.0
11
320.0
21
261.283555449
31
0.0
0
LINE
5
728
100
AcDbEntity
100
AcDbLine
8
3
62
256
370
-1
6
ByLayer
10
320.0
20
261.283555449
30
0.0
11
321.0
21
262.171676917
31
0.0
0
LINE
5
729
100
AcDbEntity
100
AcDbLine
8
3
62
256
370
-1
6
ByLayer
10
321.0
20
262.171676917
30
0.0
11
322.0
21
263.040860288
31
0.0
0
LINE
5
730
100
AcDbEntity
100
AcDbLine
8
3
62
256
370
-1
6
ByLayer
10
322.0
20
263.040860288
30
0.0
11
323.0
21
263.890840804
31
0.0
0
LINE
5
731
100
AcDbEntity
100
AcDbLine
8
3
62
256
370
-1
6
ByLayer
10
323.0
20
263.890840804
30
0.0
11
324.0
21
264.72135955
31
0.0
0
LINE
5
732
100
AcDbEntity
100
AcDbLine
8
3
62
256
370
-1
6
ByLayer
10
324.0
20
264.72135955
30
0.0
11
325.0
21
265.532163543
31
0.0
0
LINE
5
733
100
AcDbEntity
100
AcDbLine
8
3
62
256
370
-1
6
ByLayer
10
325.0
20
265.532163543
30
0.0
11
326.0
21
266.323005804
31
0.0
0
LINE
5
734
100
AcDbEntity
100
AcDbLine
8
3
62
256
370
-1
6
ByLayer
10
326.0
20
266.323005804
30
0.0
11
327.0
21
267.093645436
31
0.0
0
LINE
5
735
100
AcDbEntity
100
AcDbLine
8
3
62
256
370
-1
6
ByLayer
10
327.0
20
267.093645436
30
0.0
11
328.0
21
267.843847692
31
0.0
0
LINE
5
736
100
AcDbEntity
100
AcDbLine
8
3
62
256
370
-1
6
ByLayer
10
328.0
20
267.843847692
30
0.0
11
329.0
21
268.573384056
31
0.0
0
LINE
5
737
100
AcDbEntity
100
AcDbLine
8
3
62
256
370
-1
6
ByLayer
10
329.0
20
268.573384056
30
0.0
11
330.0
21
269.282032303
31
0.0
0
LINE
5
738
100
AcDbEntity
100
AcDbLine
8
3
62
256
370
-1
6
ByLayer
10
330.0
20
269.282032303
30
0.0
11
331.0
21
269.969576571
31
0.0
0
LINE
5
739
100
AcDbEntity
100
AcDbLine
8
3
62
256
370
-1
6
ByLayer
10
331.0
20
269.969576571
30
0.0
11
332.0
21
270.635807429
31
0.0
0
LINE
5
740
100
AcDbEntity
100
AcDbLine
8
3
62
256
370
-1
6
ByLayer
10
332.0
20
270.635807429
30
0.0
11
333.0
21
271.280521935
31
0.0
0
LINE
5
741
100
AcDbEntity
100
AcDbLine
8
3
62
256
370
-1
6
ByLayer
10
333.0
20
271.280521935
30
0.0
11
334.0
21
271.903523704
31
0.0
0
LINE
5
742
100
AcDbEntity
100
AcDbLine
8
3
62
256
370
-1
6
ByLayer
10
334.0
20
271.903523704
30
0.0
11
335.0
21
272.504622963
31
0.0
0
LINE
5
743
100
AcDbEntity
100
AcDbLine
8
3
62
256
370
-1
6
ByLayer
10
335.0
20
272.504622963
30
0.0
11
336.0
21
273.083636611
31
0.0
0
LINE
5
744
100
AcDbEntity
100
AcDbLine
8
3
62
256
370
-1
6
ByLayer
10
336.0
20
273.083636611
30
0.0
11
337.0
21
273.640388276
31
0.0
0
LINE
5
745
100
AcDbEntity
100
AcDbLine
8
3
62
256
370
-1
6
ByLayer
10
337.0
20
273.640388276
30
0.0
11
338.0
21
274.174708365
31
0.0
0
LINE
5
746
100
AcDbEntity
100
AcDbLine
8
3
62
256
370
-1
6
ByLayer
10
338.0
20
274.174708365
30
0.0
11
339.0
21
274.68643412
31
0.0
0
LINE
5
747
100
AcDbEntity
100
AcDbLine
8
3
62
256
370
-1
6
ByLayer
10
339.0
20
274.68643412
30
0.0
11
340.0
21
275.175409663
31
0.0
0
LINE
5
748
100
AcDbEntity
100
AcDbLine
8
3
62
256
370
-1
6
ByLayer
10
340.0
20
275.175409663
30
0.0
11
341.0
21
275.641486048
31
0.0
0
LINE
5
749
100
AcDbEntity
100
AcDbLine
8
3
62
256
370
-1
6
ByLayer
10
341.0
20
275.641486048
30
0.0
11
342.0
21
276.084521304
31
0.0
0
LINE
5
750
100
AcDbEntity
100
AcDbLine
8
3
62
256
370
-1
6
ByLayer
10
342.0
20
276.084521304
30
0.0
11
343.0
21
276.504380477
31
0.0
0
LINE
5
751
100
AcDbEntity
100
AcDbLine
8
3
62
256
370
-1
6
ByLayer
10
343.0
20
276.504380477
30
0.0
11
344.0
21
276.900935675
31
0.0
0
LINE
5
752
100
AcDbEntity
100
AcDbLine
8
3
62
256
370
-1
6
ByLayer
10
344.0
20
276.900935675
30
0.0
11
345.0
21
277.274066103
31
0.0
0
LINE
5
753
100
AcDbEntity
100
AcDbLine
8
3
62
256
370
-1
6
ByLayer
10
345.0
20
277.274066103
30
0.0
11
346.0
21
277.623658102
31
0.0
0
LINE
5
754
100
AcDbEntity
100
AcDbLine
8
3
62
256
370
-1
6
ByLayer
10
346.0
20
277.623658102
30
0.0
11
347.0
21
277.949605183
31
0.0
0
LINE
5
755
100
AcDbEntity
100
AcDbLine
8
3
62
256
370
-1
6
ByLayer
10
347.0
20
277.949605183
30
0.0
11
348.0
21
278.251808059
31
0.0
0
LINE
5
756
100
AcDbEntity
100
AcDbLine
8
3
62
256
370
-1
6
ByLayer
10
348.0
20
278.251808059
30
0.0
11
349.0
21
278.530174676
31
0.0
0
LINE
5
757
100
AcDbEntity
100
AcDbLine
8
3
62
256
370
-1
6
ByLayer
10
349.0
20
278.530174676
30
0.0
11
350.0
21
278.784620241
31
0.0
0
LINE
5
758
100
AcDbEntity
100
AcDbLine
8
3
62
256
370
-1
6
ByLayer
10
350.0
20
278.784620241
30
0.0
11
351.0
21
279.015067248
31
0.0
0
LINE
5
759
100
AcDbEntity
100
AcDbLine
8
3
62
256
370
-1
6
ByLayer
10
351.0
20
279.015067248
30
0.0
11
352.0
21
279.221445499
31
0.0
0
LINE
5
760
100
AcDbEntity
100
AcDbLine
8
3
62
256
370
-1
6
ByLayer
10
352.0
20
279.221445499
30
0.0
11
353.0
21
279.403692131
31
0.0
0
LINE
5
761
100
AcDbEntity
100
AcDbLine
8
3
62
256
370
-1
6
ByLayer
10
353.0
20
279.403692131
30
0.0
11
354.0
21
279.56175163
31
0.0
0
LINE
5
762
100
AcDbEntity
100
AcDbLine
8
3
62
256
370
-1
6
ByLayer
10
354.0
20
279.56175163
30
0.0
11
355.0
21
279.695575847
31
0.0
0
LINE
5
763
100
AcDbEntity
100
AcDbLine
8
3
62
256
370
-1
6
ByLayer
10
355.0
20
279.695575847
30
0.0
11
356.0
21
279.805124021
31
0.0
0
LINE
5
764
100
AcDbEntity
100
AcDbLine
8
3
62
256
370
-1
6
ByLayer
10
356.0
20
279.805124021
30
0.0
11
357.0
21
279.89036278
31
0.0
0
LINE
5
765
100
AcDbEntity
100
AcDbLine
8
3
62
256
370
-1
6
ByLayer
10
357.0
20
279.89036278
30
0.0
11
358.0
21
279.951266162
31
0.0
0
LINE
5
766
100
AcDbEntity
100
AcDbLine
8
3
62
256
370
-1
6
ByLayer
10
358.0
20
279.951266162
30
0.0
11
359.0
21
279.987815613
31
0.0
0
LINE
5
767
100
AcDbEntity
100
AcDbLine
8
3
62
256
370
-1
6
ByLayer
10
359.0
20
279.987815613
30
0.0
11
360.0
21
280.0
31
0.0
0
MTEXT
5
768
100
AcDbEntity
100
AcDbMText
8
2
62
256
370
-1
6
ByLayer
10
180.0
20
-95.0
30
0.0
40
10
41
100.0
71
8
72
0
1
Sine Curve
7
normallatin1
50
0.0
73
1
44
1.0
0
MTEXT
5
769
100
AcDbEntity
100
AcDbMText
8
3
62
256
370
-1
6
ByLayer
10
180.0
20
105.0
30
0.0
40
10
41
100.0
71
8
72
0
1
Cosine Curve
7
normallatin1
50
0.0
73
1
44
1.0
0
ENDSEC
  0
SECTION
  2
OBJECTS
  0
DICTIONARY
  5
C
100
AcDbDictionary
280
0
281
1
  3
ACAD_GROUP
350
D
  3
ACAD_LAYOUT
350
1A
  3
ACAD_MLINESTYLE
350
17
  3
ACAD_PLOTSETTINGS
350
19
  3
ACAD_PLOTSTYLENAME
350
E
  3
AcDbVariableDictionary
350
48
  0
DICTIONARY
  5
D
100
AcDbDictionary
280
0
281
1
  0
ACDBDICTIONARYWDFLT
  5
E
100
AcDbDictionary
281
1
  3
Normal
350
F
100
AcDbDictionaryWithDefault
340
F
  0
ACDBPLACEHOLDER
  5
F
  0
DICTIONARY
  5
17
100
AcDbDictionary
280
0
281
1
  3
Standard
350
18
  0
MLINESTYLE
  5
18
100
AcDbMlineStyle
  2
STANDARD
 70
0
  3

 62
256
 51
90.0
 52
90.0
 71
2
 49
0.5
 62
256
  6
BYLAYER
 49
-0.5
 62
256
  6
BYLAYER
  0
DICTIONARY
  5
19
100
AcDbDictionary
280
0
281
1
  0
DICTIONARY
  5
1A
100
AcDbDictionary
281
1
  3
Layout1
350
1E
  3
Layout2
350
26
  3
Model
350
22
  0
LAYOUT
  5
1E
100
AcDbPlotSettings
  1

  2
C:\Program Files\AutoCAD 2002\plotters\DWF ePlot (optimized for plotting).pc3
  4

  6

 40
0.0
 41
0.0
 42
0.0
 43
0.0
 44
0.0
 45
0.0
 46
0.0
 47
0.0
 48
0.0
 49
0.0
140
0.0
141
0.0
142
1.0
143
1.0
 70
688
 72
0
 73
0
 74
5
  7

 75
16
147
1.0
148
0.0
149
0.0
100
AcDbLayout
  1
Layout1
 70
1
 71
1
 10
0.0
 20
0.0
 11
420.0
 21
297.0
 12
0.0
 22
0.0
 32
0.0
 14
100000000000000000000.0
 24
100000000000000000000.0
 34
100000000000000000000.0
 15
-100000000000000000000.0
 25
-100000000000000000000.0
 35
-100000000000000000000.0
146
0.0
 13
0.0
 23
0.0
 33
0.0
 16
1.0
 26
0.0
 36
0.0
 17
0.0
 27
1.0
 37
0.0
 76
0
330
1B
  0
LAYOUT
  5
22
100
AcDbPlotSettings
  1

  2
C:\Program Files\AutoCAD 2002\plotters\DWF ePlot (optimized for plotting).pc3
  4

  6

 40
0.0
 41
0.0
 42
0.0
 43
0.0
 44
0.0
 45
0.0
 46
0.0
 47
0.0
 48
0.0
 49
0.0
140
0.0
141
0.0
142
1.0
143
1.0
 70
1712
 72
0
 73
0
 74
0
  7

 75
0
147
1.0
148
0.0
149
0.0
100
AcDbLayout
  1
Model
 70
1
 71
0
 10
0.0
 20
0.0
 11
12.0
 21
9.0
 12
0.0
 22
0.0
 32
0.0
 14
0.0
 24
0.0
 34
0.0
 15
0.0
 25
0.0
 35
0.0
146
0.0
 13
0.0
 23
0.0
 33
0.0
 16
1.0
 26
0.0
 36
0.0
 17
0.0
 27
1.0
 37
0.0
 76
0
330
1F
  0
LAYOUT
  5
26
100
AcDbPlotSettings
  1

  2
C:\Program Files\AutoCAD 2002\plotters\DWF ePlot (optimized for plotting).pc3
  4

  6

 40
0.0
 41
0.0
 42
0.0
 43
0.0
 44
0.0
 45
0.0
 46
0.0
 47
0.0
 48
0.0
 49
0.0
140
0.0
141
0.0
142
1.0
143
1.0
 70
688
 72
0
 73
0
 74
5
  7

 75
16
147
1.0
148
0.0
149
0.0
100
AcDbLayout
  1
Layout2
 70
1
 71
2
 10
0.0
 20
0.0
 11
12.0
 21
9.0
 12
0.0
 22
0.0
 32
0.0
 14
0.0
 24
0.0
 34
0.0
 15
0.0
 25
0.0
 35
0.0
146
0.0
 13
0.0
 23
0.0
 33
0.0
 16
1.0
 26
0.0
 36
0.0
 17
0.0
 27
1.0
 37
0.0
 76
0
330
23
  0
DICTIONARY
  5
48
100
AcDbDictionary
281
1
  3
DIMASSOC
350
4A
  3
HIDETEXT
350
49
  0
DICTIONARYVAR
  5
49
100
DictionaryVariables
280
0
  1
2
  0
DICTIONARYVAR
  5
4A
100
DictionaryVariables
280
0
  1
1
  0
ENDSEC
  0
EOF
