999
dxflib 2.0.4.8
  0
SECTION
  2
HEADER
  9
$ACADVER
  1
AC1015
  9
$HANDSEED
  5
FFFF
  9
$DIMASZ
 40
2.5
  9
$DIMGAP
 40
0.625
  9
$DIMEXO
 40
0.625
  9
$INSUNITS
 70
4
  9
$DIMTXT
 40
2.5
  9
$PLIMMAX
 10
210.0
 20
297.0
  9
$PLIMMIN
 10
0.0
 20
0.0
  9
$DIMEXE
 40
1.25
  0
ENDSEC
  0
SECTION
  2
TABLES
  0
TABLE
  2
VPORT
  5
8
100
AcDbSymbolTable
 70
1
  0
VPORT
  5
30
100
AcDbSymbolTableRecord
100
AcDbViewportTableRecord
  2
*Active
 70
0
 10
0.0
 20
0.0
 11
1.0
 21
1.0
 12
286.3055555555554861
 22
148.5
 13
0.0
 23
0.0
 14
10.0
 24
10.0
 15
10.0
 25
10.0
 16
0.0
 26
0.0
 36
1.0
 17
0.0
 27
0.0
 37
0.0
 40
297.0
 41
1.92798353909465
 42
50.0
 43
0.0
 44
0.0
 50
0.0
 51
0.0
 71
0
 72
100
 73
1
 74
3
 75
1
 76
1
 77
0
 78
0
281
0
 65
1
110
0.0
120
0.0
130
0.0
111
1.0
121
0.0
131
0.0
112
0.0
122
1.0
132
0.0
 79
0
146
0.0
  0
ENDTAB
  0
TABLE
  2
LTYPE
  5
5
100
AcDbSymbolTable
 70
21
  0
LTYPE
  5
14
100
AcDbSymbolTableRecord
100
AcDbLinetypeTableRecord
  2
ByBlock
 70
0
  3

 72
65
 73
0
 40
0.0
  0
LTYPE
  5
15
100
AcDbSymbolTableRecord
100
AcDbLinetypeTableRecord
  2
ByLayer
 70
0
  3

 72
65
 73
0
 40
0.0
  0
LTYPE
  5
16
100
AcDbSymbolTableRecord
100
AcDbLinetypeTableRecord
  2
CONTINUOUS
 70
0
  3
Solid line
 72
65
 73
0
 40
0.0
  0
LTYPE
  5
31
100
AcDbSymbolTableRecord
100
AcDbLinetypeTableRecord
  2
DOT
 70
0
  3
Dot . . . . . . . . . . . . . . . . . . . . . .
 72
65
 73
2
 40
6.3499999999999996
 49
0.0
 74
0
 49
-6.3499999999999996
 74
0
  0
LTYPE
  5
32
100
AcDbSymbolTableRecord
100
AcDbLinetypeTableRecord
  2
DOT2
 70
0
  3
Dot (.5x) .....................................
 72
65
 73
2
 40
3.1749999999999998
 49
0.0
 74
0
 49
-3.1749999999999998
 74
0
  0
LTYPE
  5
33
100
AcDbSymbolTableRecord
100
AcDbLinetypeTableRecord
  2
DOTX2
 70
0
  3
Dot (2x) .  .  .  .  .  .  .  .  .  .  .  .  .
 72
65
 73
2
 40
12.6999999999999993
 49
0.0
 74
0
 49
-12.6999999999999993
 74
0
  0
LTYPE
  5
34
100
AcDbSymbolTableRecord
100
AcDbLinetypeTableRecord
  2
DASHED
 70
0
  3
Dashed __ __ __ __ __ __ __ __ __ __ __ __ __ _
 72
65
 73
2
 40
19.0500000000000007
 49
12.6999999999999993
 74
0
 49
-6.3499999999999996
 74
0
  0
LTYPE
  5
35
100
AcDbSymbolTableRecord
100
AcDbLinetypeTableRecord
  2
DASHED2
 70
0
  3
Dashed (.5x) _ _ _ _ _ _ _ _ _ _ _ _ _ _ _ _ _
 72
65
 73
2
 40
9.5250000000000004
 49
6.3499999999999996
 74
0
 49
-3.1749999999999998
 74
0
  0
LTYPE
  5
36
100
AcDbSymbolTableRecord
100
AcDbLinetypeTableRecord
  2
DASHEDX2
 70
0
  3
Dashed (2x) ____  ____  ____  ____  ____  ___
 72
65
 73
2
 40
38.1000000000000014
 49
25.3999999999999986
 74
0
 49
-12.6999999999999993
 74
0
  0
LTYPE
  5
37
100
AcDbSymbolTableRecord
100
AcDbLinetypeTableRecord
  2
DASHDOT
 70
0
  3
Dash dot __ . __ . __ . __ . __ . __ . __ . __
 72
65
 73
4
 40
25.3999999999999986
 49
12.6999999999999993
 74
0
 49
-6.3499999999999996
 74
0
 49
0.0
 74
0
 49
-6.3499999999999996
 74
0
  0
LTYPE
  5
38
100
AcDbSymbolTableRecord
100
AcDbLinetypeTableRecord
  2
DASHDOT2
 70
0
  3
Dash dot (.5x) _._._._._._._._._._._._._._._.
 72
65
 73
4
 40
12.6999999999999993
 49
6.3499999999999996
 74
0
 49
-3.1749999999999998
 74
0
 49
0.0
 74
0
 49
-3.1749999999999998
 74
0
  0
LTYPE
  5
39
100
AcDbSymbolTableRecord
100
AcDbLinetypeTableRecord
  2
DASHDOTX2
 70
0
  3
Dash dot (2x) ____  .  ____  .  ____  .  ___
 72
65
 73
4
 40
50.7999999999999972
 49
25.3999999999999986
 74
0
 49
-12.6999999999999993
 74
0
 49
0.0
 74
0
 49
-12.6999999999999993
 74
0
  0
LTYPE
  5
3A
100
AcDbSymbolTableRecord
100
AcDbLinetypeTableRecord
  2
DIVIDE
 70
0
  3
Divide ____ . . ____ . . ____ . . ____ . . ____
 72
65
 73
6
 40
31.75
 49
12.6999999999999993
 74
0
 49
-6.3499999999999996
 74
0
 49
0.0
 74
0
 49
-6.3499999999999996
 74
0
 49
0.0
 74
0
 49
-6.3499999999999996
 74
0
  0
LTYPE
  5
3B
100
AcDbSymbolTableRecord
100
AcDbLinetypeTableRecord
  2
DIVIDE2
 70
0
  3
Divide (.5x) __..__..__..__..__..__..__..__.._
 72
65
 73
6
 40
15.875
 49
6.3499999999999996
 74
0
 49
-3.1749999999999998
 74
0
 49
0.0
 74
0
 49
-3.1749999999999998
 74
0
 49
0.0
 74
0
 49
-3.1749999999999998
 74
0
  0
LTYPE
  5
3C
100
AcDbSymbolTableRecord
100
AcDbLinetypeTableRecord
  2
DIVIDEX2
 70
0
  3
Divide (2x) ________  .  .  ________  .  .  _
 72
65
 73
6
 40
63.5
 49
25.3999999999999986
 74
0
 49
-12.6999999999999993
 74
0
 49
0.0
 74
0
 49
-12.6999999999999993
 74
0
 49
0.0
 74
0
 49
-12.6999999999999993
 74
0
  0
LTYPE
  5
3D
100
AcDbSymbolTableRecord
100
AcDbLinetypeTableRecord
  2
CENTER
 70
0
  3
Center ____ _ ____ _ ____ _ ____ _ ____ _ ____
 72
65
 73
4
 40
50.7999999999999972
 49
31.75
 74
0
 49
-6.3499999999999996
 74
0
 49
6.3499999999999996
 74
0
 49
-6.3499999999999996
 74
0
  0
LTYPE
  5
3E
100
AcDbSymbolTableRecord
100
AcDbLinetypeTableRecord
  2
CENTER2
 70
0
  3
Center (.5x) ___ _ ___ _ ___ _ ___ _ ___ _ ___
 72
65
 73
4
 40
28.5749999999999993
 49
19.0500000000000007
 74
0
 49
-3.1749999999999998
 74
0
 49
3.1749999999999998
 74
0
 49
-3.1749999999999998
 74
0
  0
LTYPE
  5
3F
100
AcDbSymbolTableRecord
100
AcDbLinetypeTableRecord
  2
CENTERX2
 70
0
  3
Center (2x) ________  __  ________  __  _____
 72
65
 73
4
 40
101.5999999999999943
 49
63.5
 74
0
 49
-12.6999999999999993
 74
0
 49
12.6999999999999993
 74
0
 49
-12.6999999999999993
 74
0
  0
LTYPE
  5
40
100
AcDbSymbolTableRecord
100
AcDbLinetypeTableRecord
  2
BORDER
 70
0
  3
Border __ __ . __ __ . __ __ . __ __ . __ __ .
 72
65
 73
6
 40
44.4500000000000028
 49
12.6999999999999993
 74
0
 49
-6.3499999999999996
 74
0
 49
12.6999999999999993
 74
0
 49
-6.3499999999999996
 74
0
 49
0.0
 74
0
 49
-6.3499999999999996
 74
0
  0
LTYPE
  5
41
100
AcDbSymbolTableRecord
100
AcDbLinetypeTableRecord
  2
BORDER2
 70
0
  3
Border (.5x) __.__.__.__.__.__.__.__.__.__.__.
 72
65
 73
6
 40
22.2250000000000014
 49
6.3499999999999996
 74
0
 49
-3.1749999999999998
 74
0
 49
6.3499999999999996
 74
0
 49
-3.1749999999999998
 74
0
 49
0.0
 74
0
 49
-3.1749999999999998
 74
0
  0
LTYPE
  5
42
100
AcDbSymbolTableRecord
100
AcDbLinetypeTableRecord
  2
BORDERX2
 70
0
  3
Border (2x) ____  ____  .  ____  ____  .  ___
 72
65
 73
6
 40
88.9000000000000057
 49
25.3999999999999986
 74
0
 49
-12.6999999999999993
 74
0
 49
25.3999999999999986
 74
0
 49
-12.6999999999999993
 74
0
 49
0.0
 74
0
 49
-12.6999999999999993
 74
0
  0
ENDTAB
  0
TABLE
  2
LAYER
  5
2
100
AcDbSymbolTable
 70
6
  0
LAYER
  5
10
100
AcDbSymbolTableRecord
100
AcDbLayerTableRecord
  2
0
 70
0
 62
7
  6
CONTINUOUS
370
0
390
F
  0
LAYER
  5
43
100
AcDbSymbolTableRecord
100
AcDbLayerTableRecord
  2
1
 70
0
 62
6
  6
CONTINUOUS
370
0
390
F
  0
LAYER
  5
44
100
AcDbSymbolTableRecord
100
AcDbLayerTableRecord
  2
2
 70
0
 62
2
  6
CONTINUOUS
370
0
390
F
  0
LAYER
  5
45
100
AcDbSymbolTableRecord
100
AcDbLayerTableRecord
  2
3
 70
0
 62
3
  6
CONTINUOUS
370
0
390
F
  0
LAYER
  5
46
100
AcDbSymbolTableRecord
100
AcDbLayerTableRecord
  2
4
 70
0
 62
1
  6
CONTINUOUS
370
0
390
F
  0
LAYER
  5
47
100
AcDbSymbolTableRecord
100
AcDbLayerTableRecord
  2
5
 70
0
 62
5
  6
CONTINUOUS
370
0
390
F
  0
ENDTAB
  0
TABLE
  2
STYLE
  5
3
100
AcDbSymbolTable
 70
1
  0
STYLE
  5
11
100
AcDbSymbolTableRecord
100
AcDbTextStyleTableRecord
  2
Standard
 70
0
 40
0.0
 41
0.75
 50
0.0
 71
0
 42
2.5
  3
txt
  4

  0
ENDTAB
  0
TABLE
  2
VIEW
  5
6
100
AcDbSymbolTable
 70
0
  0
ENDTAB
  0
TABLE
  2
UCS
  5
7
100
AcDbSymbolTable
 70
0
  0
ENDTAB
  0
TABLE
  2
APPID
  5
9
100
AcDbSymbolTable
 70
1
  0
APPID
  5
12
100
AcDbSymbolTableRecord
100
AcDbRegAppTableRecord
  2
ACAD
 70
0
  0
ENDTAB
  0
TABLE
  2
DIMSTYLE
  5
A
100
AcDbSymbolTable
 70
1
100
AcDbDimStyleTable
 71
0
  0
DIMSTYLE
105
27
100
AcDbSymbolTableRecord
100
AcDbDimStyleTableRecord
  2
Standard
 41
2.5
 42
0.625
 43
3.75
 44
1.25
 70
0
 73
0
 74
0
 77
1
 78
8
140
2.5
141
2.5
143
0.03937007874016
147
0.625
171
3
172
1
271
2
272
2
274
3
278
44
283
0
284
8
340
11
  0
ENDTAB
  0
TABLE
  2
BLOCK_RECORD
  5
1
100
AcDbSymbolTable
 70
1
  0
BLOCK_RECORD
  5
1F
100
AcDbSymbolTableRecord
100
AcDbBlockTableRecord
  2
*Model_Space
340
22
  0
BLOCK_RECORD
  5
1B
100
AcDbSymbolTableRecord
100
AcDbBlockTableRecord
  2
*Paper_Space
340
1E
  0
BLOCK_RECORD
  5
23
100
AcDbSymbolTableRecord
100
AcDbBlockTableRecord
  2
*Paper_Space0
340
26
  0
ENDTAB
  0
ENDSEC
  0
SECTION
  2
BLOCKS
  0
BLOCK
  5
20
100
AcDbEntity
  8
0
100
AcDbBlockBegin
  2
*Model_Space
 70
0
 10
0.0
 20
0.0
 30
0.0
  3
*Model_Space
  1

  0
ENDBLK
  5
21
100
AcDbEntity
  8
0
100
AcDbBlockEnd
  0
BLOCK
  5
1C
100
AcDbEntity
 67
1
  8
0
100
AcDbBlockBegin
  2
*Paper_Space
 70
0
 10
0.0
 20
0.0
 30
0.0
  3
*Paper_Space
  1

  0
ENDBLK
  5
1D
100
AcDbEntity
 67
1
  8
0
100
AcDbBlockEnd
  0
BLOCK
  5
24
100
AcDbEntity
  8
0
100
AcDbBlockBegin
  2
*Paper_Space0
 70
0
 10
0.0
 20
0.0
 30
0.0
  3
*Paper_Space0
  1

  0
ENDBLK
  5
25
100
AcDbEntity
  8
0
100
AcDbBlockEnd
  0
ENDSEC
  0
SECTION
  2
ENTITIES
  0
LINE
5
48
100
AcDbEntity
100
AcDbLine
8
2
62
256
370
-1
6
ByLayer
10
0.0
20
0.0
30
0.0
11
1.0
21
6.32455532034
31
0.0
0
LINE
5
49
100
AcDbEntity
100
AcDbLine
8
2
62
256
370
-1
6
ByLayer
10
1.0
20
6.32455532034
30
0.0
11
2.0
21
8.94427191
31
0.0
0
LINE
5
50
100
AcDbEntity
100
AcDbLine
8
2
62
256
370
-1
6
ByLayer
10
2.0
20
8.94427191
30
0.0
11
3.0
21
10.9544511501
31
0.0
0
LINE
5
51
100
AcDbEntity
100
AcDbLine
8
2
62
256
370
-1
6
ByLayer
10
3.0
20
10.9544511501
30
0.0
11
4.0
21
12.6491106407
31
0.0
0
LINE
5
52
100
AcDbEntity
100
AcDbLine
8
2
62
256
370
-1
6
ByLayer
10
4.0
20
12.6491106407
30
0.0
11
5.0
21
14.1421356237
31
0.0
0
LINE
5
53
100
AcDbEntity
100
AcDbLine
8
2
62
256
370
-1
6
ByLayer
10
5.0
20
14.1421356237
30
0.0
11
6.0
21
15.4919333848
31
0.0
0
LINE
5
54
100
AcDbEntity
100
AcDbLine
8
2
62
256
370
-1
6
ByLayer
10
6.0
20
15.4919333848
30
0.0
11
7.0
21
16.7332005307
31
0.0
0
LINE
5
55
100
AcDbEntity
100
AcDbLine
8
2
62
256
370
-1
6
ByLayer
10
7.0
20
16.7332005307
30
0.0
11
8.0
21
17.88854382
31
0.0
0
LINE
5
56
100
AcDbEntity
100
AcDbLine
8
2
62
256
370
-1
6
ByLayer
10
8.0
20
17.88854382
30
0.0
11
9.0
21
18.973665961
31
0.0
0
LINE
5
57
100
AcDbEntity
100
AcDbLine
8
2
62
256
370
-1
6
ByLayer
10
9.0
20
18.973665961
30
0.0
11
10.0
21
20.0
31
0.0
0
LINE
5
58
100
AcDbEntity
100
AcDbLine
8
2
62
256
370
-1
6
ByLayer
10
10.0
20
20.0
30
0.0
11
11.0
21
20.9761769634
31
0.0
0
LINE
5
59
100
AcDbEntity
100
AcDbLine
8
2
62
256
370
-1
6
ByLayer
10
11.0
20
20.9761769634
30
0.0
11
12.0
21
21.9089023002
31
0.0
0
LINE
5
60
100
AcDbEntity
100
AcDbLine
8
2
62
256
370
-1
6
ByLayer
10
12.0
20
21.9089023002
30
0.0
11
13.0
21
22.803508502
31
0.0
0
LINE
5
61
100
AcDbEntity
100
AcDbLine
8
2
62
256
370
-1
6
ByLayer
10
13.0
20
22.803508502
30
0.0
11
14.0
21
23.6643191324
31
0.0
0
LINE
5
62
100
AcDbEntity
100
AcDbLine
8
2
62
256
370
-1
6
ByLayer
10
14.0
20
23.6643191324
30
0.0
11
15.0
21
24.4948974278
31
0.0
0
LINE
5
63
100
AcDbEntity
100
AcDbLine
8
2
62
256
370
-1
6
ByLayer
10
15.0
20
24.4948974278
30
0.0
11
16.0
21
25.2982212813
31
0.0
0
LINE
5
64
100
AcDbEntity
100
AcDbLine
8
2
62
256
370
-1
6
ByLayer
10
16.0
20
25.2982212813
30
0.0
11
17.0
21
26.0768096208
31
0.0
0
LINE
5
65
100
AcDbEntity
100
AcDbLine
8
2
62
256
370
-1
6
ByLayer
10
17.0
20
26.0768096208
30
0.0
11
18.0
21
26.83281573
31
0.0
0
LINE
5
66
100
AcDbEntity
100
AcDbLine
8
2
62
256
370
-1
6
ByLayer
10
18.0
20
26.83281573
30
0.0
11
19.0
21
27.5680975042
31
0.0
0
LINE
5
67
100
AcDbEntity
100
AcDbLine
8
2
62
256
370
-1
6
ByLayer
10
19.0
20
27.5680975042
30
0.0
11
20.0
21
28.2842712475
31
0.0
0
LINE
5
68
100
AcDbEntity
100
AcDbLine
8
2
62
256
370
-1
6
ByLayer
10
20.0
20
28.2842712475
30
0.0
11
21.0
21
28.9827534924
31
0.0
0
LINE
5
69
100
AcDbEntity
100
AcDbLine
8
2
62
256
370
-1
6
ByLayer
10
21.0
20
28.9827534924
30
0.0
11
22.0
21
29.6647939484
31
0.0
0
LINE
5
70
100
AcDbEntity
100
AcDbLine
8
2
62
256
370
-1
6
ByLayer
10
22.0
20
29.6647939484
30
0.0
11
23.0
21
30.3315017762
31
0.0
0
LINE
5
71
100
AcDbEntity
100
AcDbLine
8
2
62
256
370
-1
6
ByLayer
10
23.0
20
30.3315017762
30
0.0
11
24.0
21
30.9838667697
31
0.0
0
LINE
5
72
100
AcDbEntity
100
AcDbLine
8
2
62
256
370
-1
6
ByLayer
10
24.0
20
30.9838667697
30
0.0
11
25.0
21
31.6227766017
31
0.0
0
LINE
5
73
100
AcDbEntity
100
AcDbLine
8
2
62
256
370
-1
6
ByLayer
10
25.0
20
31.6227766017
30
0.0
11
26.0
21
32.2490309932
31
0.0
0
LINE
5
74
100
AcDbEntity
100
AcDbLine
8
2
62
256
370
-1
6
ByLayer
10
26.0
20
32.2490309932
30
0.0
11
27.0
21
32.8633534503
31
0.0
0
LINE
5
75
100
AcDbEntity
100
AcDbLine
8
2
62
256
370
-1
6
ByLayer
10
27.0
20
32.8633534503
30
0.0
11
28.0
21
33.4664010614
31
0.0
0
LINE
5
76
100
AcDbEntity
100
AcDbLine
8
2
62
256
370
-1
6
ByLayer
10
28.0
20
33.4664010614
30
0.0
11
29.0
21
34.0587727319
31
0.0
0
LINE
5
77
100
AcDbEntity
100
AcDbLine
8
2
62
256
370
-1
6
ByLayer
10
29.0
20
34.0587727319
30
0.0
11
30.0
21
34.6410161514
31
0.0
0
LINE
5
78
100
AcDbEntity
100
AcDbLine
8
2
62
256
370
-1
6
ByLayer
10
30.0
20
34.6410161514
30
0.0
11
31.0
21
35.2136337233
31
0.0
0
LINE
5
79
100
AcDbEntity
100
AcDbLine
8
2
62
256
370
-1
6
ByLayer
10
31.0
20
35.2136337233
30
0.0
11
32.0
21
35.77708764
31
0.0
0
LINE
5
80
100
AcDbEntity
100
AcDbLine
8
2
62
256
370
-1
6
ByLayer
10
32.0
20
35.77708764
30
0.0
11
33.0
21
36.3318042492
31
0.0
0
LINE
5
81
100
AcDbEntity
100
AcDbLine
8
2
62
256
370
-1
6
ByLayer
10
33.0
20
36.3318042492
30
0.0
11
34.0
21
36.8781778292
31
0.0
0
LINE
5
82
100
AcDbEntity
100
AcDbLine
8
2
62
256
370
-1
6
ByLayer
10
34.0
20
36.8781778292
30
0.0
11
35.0
21
37.4165738677
31
0.0
0
LINE
5
83
100
AcDbEntity
100
AcDbLine
8
2
62
256
370
-1
6
ByLayer
10
35.0
20
37.4165738677
30
0.0
11
36.0
21
37.947331922
31
0.0
0
LINE
5
84
100
AcDbEntity
100
AcDbLine
8
2
62
256
370
-1
6
ByLayer
10
36.0
20
37.947331922
30
0.0
11
37.0
21
38.4707681233
31
0.0
0
LINE
5
85
100
AcDbEntity
100
AcDbLine
8
2
62
256
370
-1
6
ByLayer
10
37.0
20
38.4707681233
30
0.0
11
38.0
21
38.9871773792
31
0.0
0
LINE
5
86
100
AcDbEntity
100
AcDbLine
8
2
62
256
370
-1
6
ByLayer
10
38.0
20
38.9871773792
30
0.0
11
39.0
21
39.4968353163
31
0.0
0
LINE
5
87
100
AcDbEntity
100
AcDbLine
8
2
62
256
370
-1
6
ByLayer
10
39.0
20
39.4968353163
30
0.0
11
40.0
21
40.0
31
0.0
0
LINE
5
88
100
AcDbEntity
100
AcDbLine
8
2
62
256
370
-1
6
ByLayer
10
40.0
20
40.0
30
0.0
11
41.0
21
40.4969134626
31
0.0
0
LINE
5
89
100
AcDbEntity
100
AcDbLine
8
2
62
256
370
-1
6
ByLayer
10
41.0
20
40.4969134626
30
0.0
11
42.0
21
40.9878030638
31
0.0
0
LINE
5
90
100
AcDbEntity
100
AcDbLine
8
2
62
256
370
-1
6
ByLayer
10
42.0
20
40.9878030638
30
0.0
11
43.0
21
41.4728827067
31
0.0
0
LINE
5
91
100
AcDbEntity
100
AcDbLine
8
2
62
256
370
-1
6
ByLayer
10
43.0
20
41.4728827067
30
0.0
11
44.0
21
41.9523539268
31
0.0
0
LINE
5
92
100
AcDbEntity
100
AcDbLine
8
2
62
256
370
-1
6
ByLayer
10
44.0
20
41.9523539268
30
0.0
11
45.0
21
42.4264068712
31
0.0
0
LINE
5
93
100
AcDbEntity
100
AcDbLine
8
2
62
256
370
-1
6
ByLayer
10
45.0
20
42.4264068712
30
0.0
11
46.0
21
42.8952211791
31
0.0
0
LINE
5
94
100
AcDbEntity
100
AcDbLine
8
2
62
256
370
-1
6
ByLayer
10
46.0
20
42.8952211791
30
0.0
11
47.0
21
43.3589667774
31
0.0
0
LINE
5
95
100
AcDbEntity
100
AcDbLine
8
2
62
256
370
-1
6
ByLayer
10
47.0
20
43.3589667774
30
0.0
11
48.0
21
43.8178046004
31
0.0
0
LINE
5
96
100
AcDbEntity
100
AcDbLine
8
2
62
256
370
-1
6
ByLayer
10
48.0
20
43.8178046004
30
0.0
11
49.0
21
44.2718872424
31
0.0
0
LINE
5
97
100
AcDbEntity
100
AcDbLine
8
2
62
256
370
-1
6
ByLayer
10
49.0
20
44.2718872424
30
0.0
11
50.0
21
44.72135955
31
0.0
0
LINE
5
98
100
AcDbEntity
100
AcDbLine
8
2
62
256
370
-1
6
ByLayer
10
50.0
20
44.72135955
30
0.0
11
51.0
21
45.1663591625
31
0.0
0
LINE
5
99
100
AcDbEntity
100
AcDbLine
8
2
62
256
370
-1
6
ByLayer
10
51.0
20
45.1663591625
30
0.0
11
52.0
21
45.607017004
31
0.0
0
LINE
5
100
100
AcDbEntity
100
AcDbLine
8
2
62
256
370
-1
6
ByLayer
10
52.0
20
45.607017004
30
0.0
11
53.0
21
46.0434577329
31
0.0
0
LINE
5
101
100
AcDbEntity
100
AcDbLine
8
2
62
256
370
-1
6
ByLayer
10
53.0
20
46.0434577329
30
0.0
11
54.0
21
46.4758001545
31
0.0
0
LINE
5
102
100
AcDbEntity
100
AcDbLine
8
2
62
256
370
-1
6
ByLayer
10
54.0
20
46.4758001545
30
0.0
11
55.0
21
46.9041575982
31
0.0
0
LINE
5
103
100
AcDbEntity
100
AcDbLine
8
2
62
256
370
-1
6
ByLayer
10
55.0
20
46.9041575982
30
0.0
11
56.0
21
47.3286382648
31
0.0
0
LINE
5
104
100
AcDbEntity
100
AcDbLine
8
2
62
256
370
-1
6
ByLayer
10
56.0
20
47.3286382648
30
0.0
11
57.0
21
47.7493455453
31
0.0
0
LINE
5
105
100
AcDbEntity
100
AcDbLine
8
2
62
256
370
-1
6
ByLayer
10
57.0
20
47.7493455453
30
0.0
11
58.0
21
48.1663783152
31
0.0
0
LINE
5
106
100
AcDbEntity
100
AcDbLine
8
2
62
256
370
-1
6
ByLayer
10
58.0
20
48.1663783152
30
0.0
11
59.0
21
48.579831206
31
0.0
0
LINE
5
107
100
AcDbEntity
100
AcDbLine
8
2
62
256
370
-1
6
ByLayer
10
59.0
20
48.579831206
30
0.0
11
60.0
21
48.9897948557
31
0.0
0
LINE
5
108
100
AcDbEntity
100
AcDbLine
8
2
62
256
370
-1
6
ByLayer
10
60.0
20
48.9897948557
30
0.0
11
61.0
21
49.3963561409
31
0.0
0
LINE
5
109
100
AcDbEntity
100
AcDbLine
8
2
62
256
370
-1
6
ByLayer
10
61.0
20
49.3963561409
30
0.0
11
62.0
21
49.799598392
31
0.0
0
LINE
5
110
100
AcDbEntity
100
AcDbLine
8
2
62
256
370
-1
6
ByLayer
10
62.0
20
49.799598392
30
0.0
11
63.0
21
50.199601592
31
0.0
0
LINE
5
111
100
AcDbEntity
100
AcDbLine
8
2
62
256
370
-1
6
ByLayer
10
63.0
20
50.199601592
30
0.0
11
64.0
21
50.5964425627
31
0.0
0
LINE
5
112
100
AcDbEntity
100
AcDbLine
8
2
62
256
370
-1
6
ByLayer
10
64.0
20
50.5964425627
30
0.0
11
65.0
21
50.9901951359
31
0.0
0
LINE
5
113
100
AcDbEntity
100
AcDbLine
8
2
62
256
370
-1
6
ByLayer
10
65.0
20
50.9901951359
30
0.0
11
66.0
21
51.3809303147
31
0.0
0
LINE
5
114
100
AcDbEntity
100
AcDbLine
8
2
62
256
370
-1
6
ByLayer
10
66.0
20
51.3809303147
30
0.0
11
67.0
21
51.7687164222
31
0.0
0
LINE
5
115
100
AcDbEntity
100
AcDbLine
8
2
62
256
370
-1
6
ByLayer
10
67.0
20
51.7687164222
30
0.0
11
68.0
21
52.1536192416
31
0.0
0
LINE
5
116
100
AcDbEntity
100
AcDbLine
8
2
62
256
370
-1
6
ByLayer
10
68.0
20
52.1536192416
30
0.0
11
69.0
21
52.5357021463
31
0.0
0
LINE
5
117
100
AcDbEntity
100
AcDbLine
8
2
62
256
370
-1
6
ByLayer
10
69.0
20
52.5357021463
30
0.0
11
70.0
21
52.9150262213
31
0.0
0
LINE
5
118
100
AcDbEntity
100
AcDbLine
8
2
62
256
370
-1
6
ByLayer
10
70.0
20
52.9150262213
30
0.0
11
71.0
21
53.2916503779
31
0.0
0
LINE
5
119
100
AcDbEntity
100
AcDbLine
8
2
62
256
370
-1
6
ByLayer
10
71.0
20
53.2916503779
30
0.0
11
72.0
21
53.66563146
31
0.0
0
LINE
5
120
100
AcDbEntity
100
AcDbLine
8
2
62
256
370
-1
6
ByLayer
10
72.0
20
53.66563146
30
0.0
11
73.0
21
54.0370243444
31
0.0
0
LINE
5
121
100
AcDbEntity
100
AcDbLine
8
2
62
256
370
-1
6
ByLayer
10
73.0
20
54.0370243444
30
0.0
11
74.0
21
54.4058820349
31
0.0
0
LINE
5
122
100
AcDbEntity
100
AcDbLine
8
2
62
256
370
-1
6
ByLayer
10
74.0
20
54.4058820349
30
0.0
11
75.0
21
54.7722557505
31
0.0
0
LINE
5
123
100
AcDbEntity
100
AcDbLine
8
2
62
256
370
-1
6
ByLayer
10
75.0
20
54.7722557505
30
0.0
11
76.0
21
55.1361950084
31
0.0
0
LINE
5
124
100
AcDbEntity
100
AcDbLine
8
2
62
256
370
-1
6
ByLayer
10
76.0
20
55.1361950084
30
0.0
11
77.0
21
55.497747702
31
0.0
0
LINE
5
125
100
AcDbEntity
100
AcDbLine
8
2
62
256
370
-1
6
ByLayer
10
77.0
20
55.497747702
30
0.0
11
78.0
21
55.8569601751
31
0.0
0
LINE
5
126
100
AcDbEntity
100
AcDbLine
8
2
62
256
370
-1
6
ByLayer
10
78.0
20
55.8569601751
30
0.0
11
79.0
21
56.2138772902
31
0.0
0
LINE
5
127
100
AcDbEntity
100
AcDbLine
8
2
62
256
370
-1
6
ByLayer
10
79.0
20
56.2138772902
30
0.0
11
80.0
21
56.5685424949
31
0.0
0
LINE
5
128
100
AcDbEntity
100
AcDbLine
8
2
62
256
370
-1
6
ByLayer
10
80.0
20
56.5685424949
30
0.0
11
81.0
21
56.920997883
31
0.0
0
LINE
5
129
100
AcDbEntity
100
AcDbLine
8
2
62
256
370
-1
6
ByLayer
10
81.0
20
56.920997883
30
0.0
11
82.0
21
57.2712842531
31
0.0
0
LINE
5
130
100
AcDbEntity
100
AcDbLine
8
2
62
256
370
-1
6
ByLayer
10
82.0
20
57.2712842531
30
0.0
11
83.0
21
57.6194411636
31
0.0
0
LINE
5
131
100
AcDbEntity
100
AcDbLine
8
2
62
256
370
-1
6
ByLayer
10
83.0
20
57.6194411636
30
0.0
11
84.0
21
57.9655069848
31
0.0
0
LINE
5
132
100
AcDbEntity
100
AcDbLine
8
2
62
256
370
-1
6
ByLayer
10
84.0
20
57.9655069848
30
0.0
11
85.0
21
58.3095189485
31
0.0
0
LINE
5
133
100
AcDbEntity
100
AcDbLine
8
2
62
256
370
-1
6
ByLayer
10
85.0
20
58.3095189485
30
0.0
11
86.0
21
58.6515131945
31
0.0
0
LINE
5
134
100
AcDbEntity
100
AcDbLine
8
2
62
256
370
-1
6
ByLayer
10
86.0
20
58.6515131945
30
0.0
11
87.0
21
58.991524815
31
0.0
0
LINE
5
135
100
AcDbEntity
100
AcDbLine
8
2
62
256
370
-1
6
ByLayer
10
87.0
20
58.991524815
30
0.0
11
88.0
21
59.3295878968
31
0.0
0
LINE
5
136
100
AcDbEntity
100
AcDbLine
8
2
62
256
370
-1
6
ByLayer
10
88.0
20
59.3295878968
30
0.0
11
89.0
21
59.6657355607
31
0.0
0
LINE
5
137
100
AcDbEntity
100
AcDbLine
8
2
62
256
370
-1
6
ByLayer
10
89.0
20
59.6657355607
30
0.0
11
90.0
21
60.0
31
0.0
0
LINE
5
138
100
AcDbEntity
100
AcDbLine
8
2
62
256
370
-1
6
ByLayer
10
90.0
20
60.0
30
0.0
11
91.0
21
60.332412516
31
0.0
0
LINE
5
139
100
AcDbEntity
100
AcDbLine
8
2
62
256
370
-1
6
ByLayer
10
91.0
20
60.332412516
30
0.0
11
92.0
21
60.6630035524
31
0.0
0
LINE
5
140
100
AcDbEntity
100
AcDbLine
8
2
62
256
370
-1
6
ByLayer
10
92.0
20
60.6630035524
30
0.0
11
93.0
21
60.9918027279
31
0.0
0
LINE
5
141
100
AcDbEntity
100
AcDbLine
8
2
62
256
370
-1
6
ByLayer
10
93.0
20
60.9918027279
30
0.0
11
94.0
21
61.318838867
31
0.0
0
LINE
5
142
100
AcDbEntity
100
AcDbLine
8
2
62
256
370
-1
6
ByLayer
10
94.0
20
61.318838867
30
0.0
11
95.0
21
61.6441400297
31
0.0
0
LINE
5
143
100
AcDbEntity
100
AcDbLine
8
2
62
256
370
-1
6
ByLayer
10
95.0
20
61.6441400297
30
0.0
11
96.0
21
61.9677335393
31
0.0
0
LINE
5
144
100
AcDbEntity
100
AcDbLine
8
2
62
256
370
-1
6
ByLayer
10
96.0
20
61.9677335393
30
0.0
11
97.0
21
62.2896460096
31
0.0
0
LINE
5
145
100
AcDbEntity
100
AcDbLine
8
2
62
256
370
-1
6
ByLayer
10
97.0
20
62.2896460096
30
0.0
11
98.0
21
62.60990337
31
0.0
0
LINE
5
146
100
AcDbEntity
100
AcDbLine
8
2
62
256
370
-1
6
ByLayer
10
98.0
20
62.60990337
30
0.0
11
99.0
21
62.9285308902
31
0.0
0
LINE
5
147
100
AcDbEntity
100
AcDbLine
8
2
62
256
370
-1
6
ByLayer
10
99.0
20
62.9285308902
30
0.0
11
100.0
21
63.2455532034
31
0.0
0
LINE
5
148
100
AcDbEntity
100
AcDbLine
8
2
62
256
370
-1
6
ByLayer
10
100.0
20
63.2455532034
30
0.0
11
101.0
21
63.5609943283
31
0.0
0
LINE
5
149
100
AcDbEntity
100
AcDbLine
8
2
62
256
370
-1
6
ByLayer
10
101.0
20
63.5609943283
30
0.0
11
102.0
21
63.8748776907
31
0.0
0
LINE
5
150
100
AcDbEntity
100
AcDbLine
8
2
62
256
370
-1
6
ByLayer
10
102.0
20
63.8748776907
30
0.0
11
103.0
21
64.1872261435
31
0.0
0
LINE
5
151
100
AcDbEntity
100
AcDbLine
8
2
62
256
370
-1
6
ByLayer
10
103.0
20
64.1872261435
30
0.0
11
104.0
21
64.4980619864
31
0.0
0
LINE
5
152
100
AcDbEntity
100
AcDbLine
8
2
62
256
370
-1
6
ByLayer
10
104.0
20
64.4980619864
30
0.0
11
105.0
21
64.8074069841
31
0.0
0
LINE
5
153
100
AcDbEntity
100
AcDbLine
8
2
62
256
370
-1
6
ByLayer
10
105.0
20
64.8074069841
30
0.0
11
106.0
21
65.1152823844
31
0.0
0
LINE
5
154
100
AcDbEntity
100
AcDbLine
8
2
62
256
370
-1
6
ByLayer
10
106.0
20
65.1152823844
30
0.0
11
107.0
21
65.4217089352
31
0.0
0
LINE
5
155
100
AcDbEntity
100
AcDbLine
8
2
62
256
370
-1
6
ByLayer
10
107.0
20
65.4217089352
30
0.0
11
108.0
21
65.7267069006
31
0.0
0
LINE
5
156
100
AcDbEntity
100
AcDbLine
8
2
62
256
370
-1
6
ByLayer
10
108.0
20
65.7267069006
30
0.0
11
109.0
21
66.0302960769
31
0.0
0
LINE
5
157
100
AcDbEntity
100
AcDbLine
8
2
62
256
370
-1
6
ByLayer
10
109.0
20
66.0302960769
30
0.0
11
110.0
21
66.3324958071
31
0.0
0
LINE
5
158
100
AcDbEntity
100
AcDbLine
8
2
62
256
370
-1
6
ByLayer
10
110.0
20
66.3324958071
30
0.0
11
111.0
21
66.6333249958
31
0.0
0
LINE
5
159
100
AcDbEntity
100
AcDbLine
8
2
62
256
370
-1
6
ByLayer
10
111.0
20
66.6333249958
30
0.0
11
112.0
21
66.9328021227
31
0.0
0
LINE
5
160
100
AcDbEntity
100
AcDbLine
8
2
62
256
370
-1
6
ByLayer
10
112.0
20
66.9328021227
30
0.0
11
113.0
21
67.2309452559
31
0.0
0
LINE
5
161
100
AcDbEntity
100
AcDbLine
8
2
62
256
370
-1
6
ByLayer
10
113.0
20
67.2309452559
30
0.0
11
114.0
21
67.5277720645
31
0.0
0
LINE
5
162
100
AcDbEntity
100
AcDbLine
8
2
62
256
370
-1
6
ByLayer
10
114.0
20
67.5277720645
30
0.0
11
115.0
21
67.8232998313
31
0.0
0
LINE
5
163
100
AcDbEntity
100
AcDbLine
8
2
62
256
370
-1
6
ByLayer
10
115.0
20
67.8232998313
30
0.0
11
116.0
21
68.1175454637
31
0.0
0
LINE
5
164
100
AcDbEntity
100
AcDbLine
8
2
62
256
370
-1
6
ByLayer
10
116.0
20
68.1175454637
30
0.0
11
117.0
21
68.4105255059
31
0.0
0
LINE
5
165
100
AcDbEntity
100
AcDbLine
8
2
62
256
370
-1
6
ByLayer
10
117.0
20
68.4105255059
30
0.0
11
118.0
21
68.7022561493
31
0.0
0
LINE
5
166
100
AcDbEntity
100
AcDbLine
8
2
62
256
370
-1
6
ByLayer
10
118.0
20
68.7022561493
30
0.0
11
119.0
21
68.9927532426
31
0.0
0
LINE
5
167
100
AcDbEntity
100
AcDbLine
8
2
62
256
370
-1
6
ByLayer
10
119.0
20
68.9927532426
30
0.0
11
120.0
21
69.2820323028
31
0.0
0
LINE
5
168
100
AcDbEntity
100
AcDbLine
8
2
62
256
370
-1
6
ByLayer
10
120.0
20
69.2820323028
30
0.0
11
121.0
21
69.5701085237
31
0.0
0
LINE
5
169
100
AcDbEntity
100
AcDbLine
8
2
62
256
370
-1
6
ByLayer
10
121.0
20
69.5701085237
30
0.0
11
122.0
21
69.8569967863
31
0.0
0
LINE
5
170
100
AcDbEntity
100
AcDbLine
8
2
62
256
370
-1
6
ByLayer
10
122.0
20
69.8569967863
30
0.0
11
123.0
21
70.142711667
31
0.0
0
LINE
5
171
100
AcDbEntity
100
AcDbLine
8
2
62
256
370
-1
6
ByLayer
10
123.0
20
70.142711667
30
0.0
11
124.0
21
70.4272674466
31
0.0
0
LINE
5
172
100
AcDbEntity
100
AcDbLine
8
2
62
256
370
-1
6
ByLayer
10
124.0
20
70.4272674466
30
0.0
11
125.0
21
70.7106781187
31
0.0
0
LINE
5
173
100
AcDbEntity
100
AcDbLine
8
2
62
256
370
-1
6
ByLayer
10
125.0
20
70.7106781187
30
0.0
11
126.0
21
70.9929573972
31
0.0
0
LINE
5
174
100
AcDbEntity
100
AcDbLine
8
2
62
256
370
-1
6
ByLayer
10
126.0
20
70.9929573972
30
0.0
11
127.0
21
71.2741187248
31
0.0
0
LINE
5
175
100
AcDbEntity
100
AcDbLine
8
2
62
256
370
-1
6
ByLayer
10
127.0
20
71.2741187248
30
0.0
11
128.0
21
71.55417528
31
0.0
0
LINE
5
176
100
AcDbEntity
100
AcDbLine
8
2
62
256
370
-1
6
ByLayer
10
128.0
20
71.55417528
30
0.0
11
129.0
21
71.8331399843
31
0.0
0
LINE
5
177
100
AcDbEntity
100
AcDbLine
8
2
62
256
370
-1
6
ByLayer
10
129.0
20
71.8331399843
30
0.0
11
130.0
21
72.1110255093
31
0.0
0
LINE
5
178
100
AcDbEntity
100
AcDbLine
8
2
62
256
370
-1
6
ByLayer
10
130.0
20
72.1110255093
30
0.0
11
131.0
21
72.3878442834
31
0.0
0
LINE
5
179
100
AcDbEntity
100
AcDbLine
8
2
62
256
370
-1
6
ByLayer
10
131.0
20
72.3878442834
30
0.0
11
132.0
21
72.6636084983
31
0.0
0
LINE
5
180
100
AcDbEntity
100
AcDbLine
8
2
62
256
370
-1
6
ByLayer
10
132.0
20
72.6636084983
30
0.0
11
133.0
21
72.9383301152
31
0.0
0
LINE
5
181
100
AcDbEntity
100
AcDbLine
8
2
62
256
370
-1
6
ByLayer
10
133.0
20
72.9383301152
30
0.0
11
134.0
21
73.2120208709
31
0.0
0
LINE
5
182
100
AcDbEntity
100
AcDbLine
8
2
62
256
370
-1
6
ByLayer
10
134.0
20
73.2120208709
30
0.0
11
135.0
21
73.4846922835
31
0.0
0
LINE
5
183
100
AcDbEntity
100
AcDbLine
8
2
62
256
370
-1
6
ByLayer
10
135.0
20
73.4846922835
30
0.0
11
136.0
21
73.7563556583
31
0.0
0
LINE
5
184
100
AcDbEntity
100
AcDbLine
8
2
62
256
370
-1
6
ByLayer
10
136.0
20
73.7563556583
30
0.0
11
137.0
21
74.0270220933
31
0.0
0
LINE
5
185
100
AcDbEntity
100
AcDbLine
8
2
62
256
370
-1
6
ByLayer
10
137.0
20
74.0270220933
30
0.0
11
138.0
21
74.296702484
31
0.0
0
LINE
5
186
100
AcDbEntity
100
AcDbLine
8
2
62
256
370
-1
6
ByLayer
10
138.0
20
74.296702484
30
0.0
11
139.0
21
74.5654075292
31
0.0
0
LINE
5
187
100
AcDbEntity
100
AcDbLine
8
2
62
256
370
-1
6
ByLayer
10
139.0
20
74.5654075292
30
0.0
11
140.0
21
74.8331477355
31
0.0
0
LINE
5
188
100
AcDbEntity
100
AcDbLine
8
2
62
256
370
-1
6
ByLayer
10
140.0
20
74.8331477355
30
0.0
11
141.0
21
75.0999334221
31
0.0
0
LINE
5
189
100
AcDbEntity
100
AcDbLine
8
2
62
256
370
-1
6
ByLayer
10
141.0
20
75.0999334221
30
0.0
11
142.0
21
75.3657747257
31
0.0
0
LINE
5
190
100
AcDbEntity
100
AcDbLine
8
2
62
256
370
-1
6
ByLayer
10
142.0
20
75.3657747257
30
0.0
11
143.0
21
75.6306816048
31
0.0
0
LINE
5
191
100
AcDbEntity
100
AcDbLine
8
2
62
256
370
-1
6
ByLayer
10
143.0
20
75.6306816048
30
0.0
11
144.0
21
75.894663844
31
0.0
0
LINE
5
192
100
AcDbEntity
100
AcDbLine
8
2
62
256
370
-1
6
ByLayer
10
144.0
20
75.894663844
30
0.0
11
145.0
21
76.1577310586
31
0.0
0
LINE
5
193
100
AcDbEntity
100
AcDbLine
8
2
62
256
370
-1
6
ByLayer
10
145.0
20
76.1577310586
30
0.0
11
146.0
21
76.4198926982
31
0.0
0
LINE
5
194
100
AcDbEntity
100
AcDbLine
8
2
62
256
370
-1
6
ByLayer
10
146.0
20
76.4198926982
30
0.0
11
147.0
21
76.6811580507
31
0.0
0
LINE
5
195
100
AcDbEntity
100
AcDbLine
8
2
62
256
370
-1
6
ByLayer
10
147.0
20
76.6811580507
30
0.0
11
148.0
21
76.9415362467
31
0.0
0
LINE
5
196
100
AcDbEntity
100
AcDbLine
8
2
62
256
370
-1
6
ByLayer
10
148.0
20
76.9415362467
30
0.0
11
149.0
21
77.2010362625
31
0.0
0
LINE
5
197
100
AcDbEntity
100
AcDbLine
8
2
62
256
370
-1
6
ByLayer
10
149.0
20
77.2010362625
30
0.0
11
150.0
21
77.4596669241
31
0.0
0
LINE
5
198
100
AcDbEntity
100
AcDbLine
8
2
62
256
370
-1
6
ByLayer
10
150.0
20
77.4596669241
30
0.0
11
151.0
21
77.7174369109
31
0.0
0
LINE
5
199
100
AcDbEntity
100
AcDbLine
8
2
62
256
370
-1
6
ByLayer
10
151.0
20
77.7174369109
30
0.0
11
152.0
21
77.9743547585
31
0.0
0
LINE
5
200
100
AcDbEntity
100
AcDbLine
8
2
62
256
370
-1
6
ByLayer
10
152.0
20
77.9743547585
30
0.0
11
153.0
21
78.2304288624
31
0.0
0
LINE
5
201
100
AcDbEntity
100
AcDbLine
8
2
62
256
370
-1
6
ByLayer
10
153.0
20
78.2304288624
30
0.0
11
154.0
21
78.4856674814
31
0.0
0
LINE
5
202
100
AcDbEntity
100
AcDbLine
8
2
62
256
370
-1
6
ByLayer
10
154.0
20
78.4856674814
30
0.0
11
155.0
21
78.7400787401
31
0.0
0
LINE
5
203
100
AcDbEntity
100
AcDbLine
8
2
62
256
370
-1
6
ByLayer
10
155.0
20
78.7400787401
30
0.0
11
156.0
21
78.9936706325
31
0.0
0
LINE
5
204
100
AcDbEntity
100
AcDbLine
8
2
62
256
370
-1
6
ByLayer
10
156.0
20
78.9936706325
30
0.0
11
157.0
21
79.2464510246
31
0.0
0
LINE
5
205
100
AcDbEntity
100
AcDbLine
8
2
62
256
370
-1
6
ByLayer
10
157.0
20
79.2464510246
30
0.0
11
158.0
21
79.4984276574
31
0.0
0
LINE
5
206
100
AcDbEntity
100
AcDbLine
8
2
62
256
370
-1
6
ByLayer
10
158.0
20
79.4984276574
30
0.0
11
159.0
21
79.7496081495
31
0.0
0
LINE
5
207
100
AcDbEntity
100
AcDbLine
8
2
62
256
370
-1
6
ByLayer
10
159.0
20
79.7496081495
30
0.0
11
160.0
21
80.0
31
0.0
0
LINE
5
208
100
AcDbEntity
100
AcDbLine
8
2
62
256
370
-1
6
ByLayer
10
160.0
20
80.0
30
0.0
11
161.0
21
80.249610591
31
0.0
0
LINE
5
209
100
AcDbEntity
100
AcDbLine
8
2
62
256
370
-1
6
ByLayer
10
161.0
20
80.249610591
30
0.0
11
162.0
21
80.49844719
31
0.0
0
LINE
5
210
100
AcDbEntity
100
AcDbLine
8
2
62
256
370
-1
6
ByLayer
10
162.0
20
80.49844719
30
0.0
11
163.0
21
80.7465169527
31
0.0
0
LINE
5
211
100
AcDbEntity
100
AcDbLine
8
2
62
256
370
-1
6
ByLayer
10
163.0
20
80.7465169527
30
0.0
11
164.0
21
80.9938269253
31
0.0
0
LINE
5
212
100
AcDbEntity
100
AcDbLine
8
2
62
256
370
-1
6
ByLayer
10
164.0
20
80.9938269253
30
0.0
11
165.0
21
81.2403840464
31
0.0
0
LINE
5
213
100
AcDbEntity
100
AcDbLine
8
2
62
256
370
-1
6
ByLayer
10
165.0
20
81.2403840464
30
0.0
11
166.0
21
81.4861951499
31
0.0
0
LINE
5
214
100
AcDbEntity
100
AcDbLine
8
2
62
256
370
-1
6
ByLayer
10
166.0
20
81.4861951499
30
0.0
11
167.0
21
81.7312669668
31
0.0
0
LINE
5
215
100
AcDbEntity
100
AcDbLine
8
2
62
256
370
-1
6
ByLayer
10
167.0
20
81.7312669668
30
0.0
11
168.0
21
81.9756061277
31
0.0
0
LINE
5
216
100
AcDbEntity
100
AcDbLine
8
2
62
256
370
-1
6
ByLayer
10
168.0
20
81.9756061277
30
0.0
11
169.0
21
82.2192191644
31
0.0
0
LINE
5
217
100
AcDbEntity
100
AcDbLine
8
2
62
256
370
-1
6
ByLayer
10
169.0
20
82.2192191644
30
0.0
11
170.0
21
82.4621125124
31
0.0
0
LINE
5
218
100
AcDbEntity
100
AcDbLine
8
2
62
256
370
-1
6
ByLayer
10
170.0
20
82.4621125124
30
0.0
11
171.0
21
82.7042925125
31
0.0
0
LINE
5
219
100
AcDbEntity
100
AcDbLine
8
2
62
256
370
-1
6
ByLayer
10
171.0
20
82.7042925125
30
0.0
11
172.0
21
82.9457654133
31
0.0
0
LINE
5
220
100
AcDbEntity
100
AcDbLine
8
2
62
256
370
-1
6
ByLayer
10
172.0
20
82.9457654133
30
0.0
11
173.0
21
83.1865373723
31
0.0
0
LINE
5
221
100
AcDbEntity
100
AcDbLine
8
2
62
256
370
-1
6
ByLayer
10
173.0
20
83.1865373723
30
0.0
11
174.0
21
83.4266144585
31
0.0
0
LINE
5
222
100
AcDbEntity
100
AcDbLine
8
2
62
256
370
-1
6
ByLayer
10
174.0
20
83.4266144585
30
0.0
11
175.0
21
83.6660026534
31
0.0
0
LINE
5
223
100
AcDbEntity
100
AcDbLine
8
2
62
256
370
-1
6
ByLayer
10
175.0
20
83.6660026534
30
0.0
11
176.0
21
83.9047078536
31
0.0
0
LINE
5
224
100
AcDbEntity
100
AcDbLine
8
2
62
256
370
-1
6
ByLayer
10
176.0
20
83.9047078536
30
0.0
11
177.0
21
84.1427358719
31
0.0
0
LINE
5
225
100
AcDbEntity
100
AcDbLine
8
2
62
256
370
-1
6
ByLayer
10
177.0
20
84.1427358719
30
0.0
11
178.0
21
84.3800924389
31
0.0
0
LINE
5
226
100
AcDbEntity
100
AcDbLine
8
2
62
256
370
-1
6
ByLayer
10
178.0
20
84.3800924389
30
0.0
11
179.0
21
84.6167832052
31
0.0
0
LINE
5
227
100
AcDbEntity
100
AcDbLine
8
2
62
256
370
-1
6
ByLayer
10
179.0
20
84.6167832052
30
0.0
11
180.0
21
84.8528137424
31
0.0
0
LINE
5
228
100
AcDbEntity
100
AcDbLine
8
2
62
256
370
-1
6
ByLayer
10
180.0
20
84.8528137424
30
0.0
11
181.0
21
85.0881895447
31
0.0
0
LINE
5
229
100
AcDbEntity
100
AcDbLine
8
2
62
256
370
-1
6
ByLayer
10
181.0
20
85.0881895447
30
0.0
11
182.0
21
85.3229160308
31
0.0
0
LINE
5
230
100
AcDbEntity
100
AcDbLine
8
2
62
256
370
-1
6
ByLayer
10
182.0
20
85.3229160308
30
0.0
11
183.0
21
85.5569985448
31
0.0
0
LINE
5
231
100
AcDbEntity
100
AcDbLine
8
2
62
256
370
-1
6
ByLayer
10
183.0
20
85.5569985448
30
0.0
11
184.0
21
85.7904423581
31
0.0
0
LINE
5
232
100
AcDbEntity
100
AcDbLine
8
2
62
256
370
-1
6
ByLayer
10
184.0
20
85.7904423581
30
0.0
11
185.0
21
86.0232526704
31
0.0
0
LINE
5
233
100
AcDbEntity
100
AcDbLine
8
2
62
256
370
-1
6
ByLayer
10
185.0
20
86.0232526704
30
0.0
11
186.0
21
86.2554346114
31
0.0
0
LINE
5
234
100
AcDbEntity
100
AcDbLine
8
2
62
256
370
-1
6
ByLayer
10
186.0
20
86.2554346114
30
0.0
11
187.0
21
86.4869932418
31
0.0
0
LINE
5
235
100
AcDbEntity
100
AcDbLine
8
2
62
256
370
-1
6
ByLayer
10
187.0
20
86.4869932418
30
0.0
11
188.0
21
86.7179335547
31
0.0
0
LINE
5
236
100
AcDbEntity
100
AcDbLine
8
2
62
256
370
-1
6
ByLayer
10
188.0
20
86.7179335547
30
0.0
11
189.0
21
86.9482604771
31
0.0
0
LINE
5
237
100
AcDbEntity
100
AcDbLine
8
2
62
256
370
-1
6
ByLayer
10
189.0
20
86.9482604771
30
0.0
11
190.0
21
87.1779788708
31
0.0
0
LINE
5
238
100
AcDbEntity
100
AcDbLine
8
2
62
256
370
-1
6
ByLayer
10
190.0
20
87.1779788708
30
0.0
11
191.0
21
87.4070935336
31
0.0
0
LINE
5
239
100
AcDbEntity
100
AcDbLine
8
2
62
256
370
-1
6
ByLayer
10
191.0
20
87.4070935336
30
0.0
11
192.0
21
87.6356092008
31
0.0
0
LINE
5
240
100
AcDbEntity
100
AcDbLine
8
2
62
256
370
-1
6
ByLayer
10
192.0
20
87.6356092008
30
0.0
11
193.0
21
87.863530546
31
0.0
0
LINE
5
241
100
AcDbEntity
100
AcDbLine
8
2
62
256
370
-1
6
ByLayer
10
193.0
20
87.863530546
30
0.0
11
194.0
21
88.0908621822
31
0.0
0
LINE
5
242
100
AcDbEntity
100
AcDbLine
8
2
62
256
370
-1
6
ByLayer
10
194.0
20
88.0908621822
30
0.0
11
195.0
21
88.3176086633
31
0.0
0
LINE
5
243
100
AcDbEntity
100
AcDbLine
8
2
62
256
370
-1
6
ByLayer
10
195.0
20
88.3176086633
30
0.0
11
196.0
21
88.5437744847
31
0.0
0
LINE
5
244
100
AcDbEntity
100
AcDbLine
8
2
62
256
370
-1
6
ByLayer
10
196.0
20
88.5437744847
30
0.0
11
197.0
21
88.7693640847
31
0.0
0
LINE
5
245
100
AcDbEntity
100
AcDbLine
8
2
62
256
370
-1
6
ByLayer
10
197.0
20
88.7693640847
30
0.0
11
198.0
21
88.9943818451
31
0.0
0
LINE
5
246
100
AcDbEntity
100
AcDbLine
8
2
62
256
370
-1
6
ByLayer
10
198.0
20
88.9943818451
30
0.0
11
199.0
21
89.2188320928
31
0.0
0
LINE
5
247
100
AcDbEntity
100
AcDbLine
8
2
62
256
370
-1
6
ByLayer
10
199.0
20
89.2188320928
30
0.0
11
200.0
21
89.4427191
31
0.0
0
LINE
5
248
100
AcDbEntity
100
AcDbLine
8
2
62
256
370
-1
6
ByLayer
10
200.0
20
89.4427191
30
0.0
11
201.0
21
89.6660470858
31
0.0
0
LINE
5
249
100
AcDbEntity
100
AcDbLine
8
2
62
256
370
-1
6
ByLayer
10
201.0
20
89.6660470858
30
0.0
11
202.0
21
89.888820217
31
0.0
0
LINE
5
250
100
AcDbEntity
100
AcDbLine
8
2
62
256
370
-1
6
ByLayer
10
202.0
20
89.888820217
30
0.0
11
203.0
21
90.1110426086
31
0.0
0
LINE
5
251
100
AcDbEntity
100
AcDbLine
8
2
62
256
370
-1
6
ByLayer
10
203.0
20
90.1110426086
30
0.0
11
204.0
21
90.3327183251
31
0.0
0
LINE
5
252
100
AcDbEntity
100
AcDbLine
8
2
62
256
370
-1
6
ByLayer
10
204.0
20
90.3327183251
30
0.0
11
205.0
21
90.5538513814
31
0.0
0
LINE
5
253
100
AcDbEntity
100
AcDbLine
8
2
62
256
370
-1
6
ByLayer
10
205.0
20
90.5538513814
30
0.0
11
206.0
21
90.7744457433
31
0.0
0
LINE
5
254
100
AcDbEntity
100
AcDbLine
8
2
62
256
370
-1
6
ByLayer
10
206.0
20
90.7744457433
30
0.0
11
207.0
21
90.9945053286
31
0.0
0
LINE
5
255
100
AcDbEntity
100
AcDbLine
8
2
62
256
370
-1
6
ByLayer
10
207.0
20
90.9945053286
30
0.0
11
208.0
21
91.2140340079
31
0.0
0
LINE
5
256
100
AcDbEntity
100
AcDbLine
8
2
62
256
370
-1
6
ByLayer
10
208.0
20
91.2140340079
30
0.0
11
209.0
21
91.4330356053
31
0.0
0
LINE
5
257
100
AcDbEntity
100
AcDbLine
8
2
62
256
370
-1
6
ByLayer
10
209.0
20
91.4330356053
30
0.0
11
210.0
21
91.6515138991
31
0.0
0
LINE
5
258
100
AcDbEntity
100
AcDbLine
8
2
62
256
370
-1
6
ByLayer
10
210.0
20
91.6515138991
30
0.0
11
211.0
21
91.8694726228
31
0.0
0
LINE
5
259
100
AcDbEntity
100
AcDbLine
8
2
62
256
370
-1
6
ByLayer
10
211.0
20
91.8694726228
30
0.0
11
212.0
21
92.0869154658
31
0.0
0
LINE
5
260
100
AcDbEntity
100
AcDbLine
8
2
62
256
370
-1
6
ByLayer
10
212.0
20
92.0869154658
30
0.0
11
213.0
21
92.3038460737
31
0.0
0
LINE
5
261
100
AcDbEntity
100
AcDbLine
8
2
62
256
370
-1
6
ByLayer
10
213.0
20
92.3038460737
30
0.0
11
214.0
21
92.5202680498
31
0.0
0
LINE
5
262
100
AcDbEntity
100
AcDbLine
8
2
62
256
370
-1
6
ByLayer
10
214.0
20
92.5202680498
30
0.0
11
215.0
21
92.736184955
31
0.0
0
LINE
5
263
100
AcDbEntity
100
AcDbLine
8
2
62
256
370
-1
6
ByLayer
10
215.0
20
92.736184955
30
0.0
11
216.0
21
92.951600309
31
0.0
0
LINE
5
264
100
AcDbEntity
100
AcDbLine
8
2
62
256
370
-1
6
ByLayer
10
216.0
20
92.951600309
30
0.0
11
217.0
21
93.1665175908
31
0.0
0
LINE
5
265
100
AcDbEntity
100
AcDbLine
8
2
62
256
370
-1
6
ByLayer
10
217.0
20
93.1665175908
30
0.0
11
218.0
21
93.3809402394
31
0.0
0
LINE
5
266
100
AcDbEntity
100
AcDbLine
8
2
62
256
370
-1
6
ByLayer
10
218.0
20
93.3809402394
30
0.0
11
219.0
21
93.5948716544
31
0.0
0
LINE
5
267
100
AcDbEntity
100
AcDbLine
8
2
62
256
370
-1
6
ByLayer
10
219.0
20
93.5948716544
30
0.0
11
220.0
21
93.8083151965
31
0.0
0
LINE
5
268
100
AcDbEntity
100
AcDbLine
8
2
62
256
370
-1
6
ByLayer
10
220.0
20
93.8083151965
30
0.0
11
221.0
21
94.0212741883
31
0.0
0
LINE
5
269
100
AcDbEntity
100
AcDbLine
8
2
62
256
370
-1
6
ByLayer
10
221.0
20
94.0212741883
30
0.0
11
222.0
21
94.2337519151
31
0.0
0
LINE
5
270
100
AcDbEntity
100
AcDbLine
8
2
62
256
370
-1
6
ByLayer
10
222.0
20
94.2337519151
30
0.0
11
223.0
21
94.4457516249
31
0.0
0
LINE
5
271
100
AcDbEntity
100
AcDbLine
8
2
62
256
370
-1
6
ByLayer
10
223.0
20
94.4457516249
30
0.0
11
224.0
21
94.6572765296
31
0.0
0
LINE
5
272
100
AcDbEntity
100
AcDbLine
8
2
62
256
370
-1
6
ByLayer
10
224.0
20
94.6572765296
30
0.0
11
225.0
21
94.8683298051
31
0.0
0
LINE
5
273
100
AcDbEntity
100
AcDbLine
8
2
62
256
370
-1
6
ByLayer
10
225.0
20
94.8683298051
30
0.0
11
226.0
21
95.078914592
31
0.0
0
LINE
5
274
100
AcDbEntity
100
AcDbLine
8
2
62
256
370
-1
6
ByLayer
10
226.0
20
95.078914592
30
0.0
11
227.0
21
95.2890339966
31
0.0
0
LINE
5
275
100
AcDbEntity
100
AcDbLine
8
2
62
256
370
-1
6
ByLayer
10
227.0
20
95.2890339966
30
0.0
11
228.0
21
95.4986910905
31
0.0
0
LINE
5
276
100
AcDbEntity
100
AcDbLine
8
2
62
256
370
-1
6
ByLayer
10
228.0
20
95.4986910905
30
0.0
11
229.0
21
95.707888912
31
0.0
0
LINE
5
277
100
AcDbEntity
100
AcDbLine
8
2
62
256
370
-1
6
ByLayer
10
229.0
20
95.707888912
30
0.0
11
230.0
21
95.9166304663
31
0.0
0
LINE
5
278
100
AcDbEntity
100
AcDbLine
8
2
62
256
370
-1
6
ByLayer
10
230.0
20
95.9166304663
30
0.0
11
231.0
21
96.1249187256
31
0.0
0
LINE
5
279
100
AcDbEntity
100
AcDbLine
8
2
62
256
370
-1
6
ByLayer
10
231.0
20
96.1249187256
30
0.0
11
232.0
21
96.3327566303
31
0.0
0
LINE
5
280
100
AcDbEntity
100
AcDbLine
8
2
62
256
370
-1
6
ByLayer
10
232.0
20
96.3327566303
30
0.0
11
233.0
21
96.5401470892
31
0.0
0
LINE
5
281
100
AcDbEntity
100
AcDbLine
8
2
62
256
370
-1
6
ByLayer
10
233.0
20
96.5401470892
30
0.0
11
234.0
21
96.7470929796
31
0.0
0
LINE
5
282
100
AcDbEntity
100
AcDbLine
8
2
62
256
370
-1
6
ByLayer
10
234.0
20
96.7470929796
30
0.0
11
235.0
21
96.9535971483
31
0.0
0
LINE
5
283
100
AcDbEntity
100
AcDbLine
8
2
62
256
370
-1
6
ByLayer
10
235.0
20
96.9535971483
30
0.0
11
236.0
21
97.1596624119
31
0.0
0
LINE
5
284
100
AcDbEntity
100
AcDbLine
8
2
62
256
370
-1
6
ByLayer
10
236.0
20
97.1596624119
30
0.0
11
237.0
21
97.3652915571
31
0.0
0
LINE
5
285
100
AcDbEntity
100
AcDbLine
8
2
62
256
370
-1
6
ByLayer
10
237.0
20
97.3652915571
30
0.0
11
238.0
21
97.5704873412
31
0.0
0
LINE
5
286
100
AcDbEntity
100
AcDbLine
8
2
62
256
370
-1
6
ByLayer
10
238.0
20
97.5704873412
30
0.0
11
239.0
21
97.7752524926
31
0.0
0
LINE
5
287
100
AcDbEntity
100
AcDbLine
8
2
62
256
370
-1
6
ByLayer
10
239.0
20
97.7752524926
30
0.0
11
240.0
21
97.9795897113
31
0.0
0
LINE
5
288
100
AcDbEntity
100
AcDbLine
8
2
62
256
370
-1
6
ByLayer
10
240.0
20
97.9795897113
30
0.0
11
241.0
21
98.1835016691
31
0.0
0
LINE
5
289
100
AcDbEntity
100
AcDbLine
8
2
62
256
370
-1
6
ByLayer
10
241.0
20
98.1835016691
30
0.0
11
242.0
21
98.38699101
31
0.0
0
LINE
5
290
100
AcDbEntity
100
AcDbLine
8
2
62
256
370
-1
6
ByLayer
10
242.0
20
98.38699101
30
0.0
11
243.0
21
98.5900603509
31
0.0
0
LINE
5
291
100
AcDbEntity
100
AcDbLine
8
2
62
256
370
-1
6
ByLayer
10
243.0
20
98.5900603509
30
0.0
11
244.0
21
98.7927122818
31
0.0
0
LINE
5
292
100
AcDbEntity
100
AcDbLine
8
2
62
256
370
-1
6
ByLayer
10
244.0
20
98.7927122818
30
0.0
11
245.0
21
98.9949493661
31
0.0
0
LINE
5
293
100
AcDbEntity
100
AcDbLine
8
2
62
256
370
-1
6
ByLayer
10
245.0
20
98.9949493661
30
0.0
11
246.0
21
99.1967741411
31
0.0
0
LINE
5
294
100
AcDbEntity
100
AcDbLine
8
2
62
256
370
-1
6
ByLayer
10
246.0
20
99.1967741411
30
0.0
11
247.0
21
99.3981891183
31
0.0
0
LINE
5
295
100
AcDbEntity
100
AcDbLine
8
2
62
256
370
-1
6
ByLayer
10
247.0
20
99.3981891183
30
0.0
11
248.0
21
99.5991967839
31
0.0
0
LINE
5
296
100
AcDbEntity
100
AcDbLine
8
2
62
256
370
-1
6
ByLayer
10
248.0
20
99.5991967839
30
0.0
11
249.0
21
99.799799599
31
0.0
0
LINE
5
297
100
AcDbEntity
100
AcDbLine
8
2
62
256
370
-1
6
ByLayer
10
249.0
20
99.799799599
30
0.0
11
250.0
21
100.0
31
0.0
0
LINE
5
298
100
AcDbEntity
100
AcDbLine
8
2
62
256
370
-1
6
ByLayer
10
250.0
20
100.0
30
0.0
11
251.0
21
100.199800399
31
0.0
0
LINE
5
299
100
AcDbEntity
100
AcDbLine
8
2
62
256
370
-1
6
ByLayer
10
251.0
20
100.199800399
30
0.0
11
252.0
21
100.399203184
31
0.0
0
LINE
5
300
100
AcDbEntity
100
AcDbLine
8
2
62
256
370
-1
6
ByLayer
10
252.0
20
100.399203184
30
0.0
11
253.0
21
100.59821072
31
0.0
0
LINE
5
301
100
AcDbEntity
100
AcDbLine
8
2
62
256
370
-1
6
ByLayer
10
253.0
20
100.59821072
30
0.0
11
254.0
21
100.796825347
31
0.0
0
LINE
5
302
100
AcDbEntity
100
AcDbLine
8
2
62
256
370
-1
6
ByLayer
10
254.0
20
100.796825347
30
0.0
11
255.0
21
100.995049384
31
0.0
0
LINE
5
303
100
AcDbEntity
100
AcDbLine
8
2
62
256
370
-1
6
ByLayer
10
255.0
20
100.995049384
30
0.0
11
256.0
21
101.192885125
31
0.0
0
LINE
5
304
100
AcDbEntity
100
AcDbLine
8
2
62
256
370
-1
6
ByLayer
10
256.0
20
101.192885125
30
0.0
11
257.0
21
101.390334845
31
0.0
0
LINE
5
305
100
AcDbEntity
100
AcDbLine
8
2
62
256
370
-1
6
ByLayer
10
257.0
20
101.390334845
30
0.0
11
258.0
21
101.587400794
31
0.0
0
LINE
5
306
100
AcDbEntity
100
AcDbLine
8
2
62
256
370
-1
6
ByLayer
10
258.0
20
101.587400794
30
0.0
11
259.0
21
101.7840852
31
0.0
0
LINE
5
307
100
AcDbEntity
100
AcDbLine
8
2
62
256
370
-1
6
ByLayer
10
259.0
20
101.7840852
30
0.0
11
260.0
21
101.980390272
31
0.0
0
LINE
5
308
100
AcDbEntity
100
AcDbLine
8
2
62
256
370
-1
6
ByLayer
10
260.0
20
101.980390272
30
0.0
11
261.0
21
102.176318196
31
0.0
0
LINE
5
309
100
AcDbEntity
100
AcDbLine
8
2
62
256
370
-1
6
ByLayer
10
261.0
20
102.176318196
30
0.0
11
262.0
21
102.371871137
31
0.0
0
LINE
5
310
100
AcDbEntity
100
AcDbLine
8
2
62
256
370
-1
6
ByLayer
10
262.0
20
102.371871137
30
0.0
11
263.0
21
102.56705124
31
0.0
0
LINE
5
311
100
AcDbEntity
100
AcDbLine
8
2
62
256
370
-1
6
ByLayer
10
263.0
20
102.56705124
30
0.0
11
264.0
21
102.761860629
31
0.0
0
LINE
5
312
100
AcDbEntity
100
AcDbLine
8
2
62
256
370
-1
6
ByLayer
10
264.0
20
102.761860629
30
0.0
11
265.0
21
102.95630141
31
0.0
0
LINE
5
313
100
AcDbEntity
100
AcDbLine
8
2
62
256
370
-1
6
ByLayer
10
265.0
20
102.95630141
30
0.0
11
266.0
21
103.150375666
31
0.0
0
LINE
5
314
100
AcDbEntity
100
AcDbLine
8
2
62
256
370
-1
6
ByLayer
10
266.0
20
103.150375666
30
0.0
11
267.0
21
103.344085462
31
0.0
0
LINE
5
315
100
AcDbEntity
100
AcDbLine
8
2
62
256
370
-1
6
ByLayer
10
267.0
20
103.344085462
30
0.0
11
268.0
21
103.537432844
31
0.0
0
LINE
5
316
100
AcDbEntity
100
AcDbLine
8
2
62
256
370
-1
6
ByLayer
10
268.0
20
103.537432844
30
0.0
11
269.0
21
103.730419839
31
0.0
0
LINE
5
317
100
AcDbEntity
100
AcDbLine
8
2
62
256
370
-1
6
ByLayer
10
269.0
20
103.730419839
30
0.0
11
270.0
21
103.923048454
31
0.0
0
LINE
5
318
100
AcDbEntity
100
AcDbLine
8
2
62
256
370
-1
6
ByLayer
10
270.0
20
103.923048454
30
0.0
11
271.0
21
104.115320679
31
0.0
0
LINE
5
319
100
AcDbEntity
100
AcDbLine
8
2
62
256
370
-1
6
ByLayer
10
271.0
20
104.115320679
30
0.0
11
272.0
21
104.307238483
31
0.0
0
LINE
5
320
100
AcDbEntity
100
AcDbLine
8
2
62
256
370
-1
6
ByLayer
10
272.0
20
104.307238483
30
0.0
11
273.0
21
104.498803821
31
0.0
0
LINE
5
321
100
AcDbEntity
100
AcDbLine
8
2
62
256
370
-1
6
ByLayer
10
273.0
20
104.498803821
30
0.0
11
274.0
21
104.690018626
31
0.0
0
LINE
5
322
100
AcDbEntity
100
AcDbLine
8
2
62
256
370
-1
6
ByLayer
10
274.0
20
104.690018626
30
0.0
11
275.0
21
104.880884817
31
0.0
0
LINE
5
323
100
AcDbEntity
100
AcDbLine
8
2
62
256
370
-1
6
ByLayer
10
275.0
20
104.880884817
30
0.0
11
276.0
21
105.071404293
31
0.0
0
LINE
5
324
100
AcDbEntity
100
AcDbLine
8
2
62
256
370
-1
6
ByLayer
10
276.0
20
105.071404293
30
0.0
11
277.0
21
105.261578936
31
0.0
0
LINE
5
325
100
AcDbEntity
100
AcDbLine
8
2
62
256
370
-1
6
ByLayer
10
277.0
20
105.261578936
30
0.0
11
278.0
21
105.451410612
31
0.0
0
LINE
5
326
100
AcDbEntity
100
AcDbLine
8
2
62
256
370
-1
6
ByLayer
10
278.0
20
105.451410612
30
0.0
11
279.0
21
105.64090117
31
0.0
0
LINE
5
327
100
AcDbEntity
100
AcDbLine
8
2
62
256
370
-1
6
ByLayer
10
279.0
20
105.64090117
30
0.0
11
280.0
21
105.830052443
31
0.0
0
LINE
5
328
100
AcDbEntity
100
AcDbLine
8
2
62
256
370
-1
6
ByLayer
10
280.0
20
105.830052443
30
0.0
11
281.0
21
106.018866246
31
0.0
0
LINE
5
329
100
AcDbEntity
100
AcDbLine
8
2
62
256
370
-1
6
ByLayer
10
281.0
20
106.018866246
30
0.0
11
282.0
21
106.207344379
31
0.0
0
LINE
5
330
100
AcDbEntity
100
AcDbLine
8
2
62
256
370
-1
6
ByLayer
10
282.0
20
106.207344379
30
0.0
11
283.0
21
106.395488626
31
0.0
0
LINE
5
331
100
AcDbEntity
100
AcDbLine
8
2
62
256
370
-1
6
ByLayer
10
283.0
20
106.395488626
30
0.0
11
284.0
21
106.583300756
31
0.0
0
LINE
5
332
100
AcDbEntity
100
AcDbLine
8
2
62
256
370
-1
6
ByLayer
10
284.0
20
106.583300756
30
0.0
11
285.0
21
106.77078252
31
0.0
0
LINE
5
333
100
AcDbEntity
100
AcDbLine
8
2
62
256
370
-1
6
ByLayer
10
285.0
20
106.77078252
30
0.0
11
286.0
21
106.957935657
31
0.0
0
LINE
5
334
100
AcDbEntity
100
AcDbLine
8
2
62
256
370
-1
6
ByLayer
10
286.0
20
106.957935657
30
0.0
11
287.0
21
107.144761888
31
0.0
0
LINE
5
335
100
AcDbEntity
100
AcDbLine
8
2
62
256
370
-1
6
ByLayer
10
287.0
20
107.144761888
30
0.0
11
288.0
21
107.33126292
31
0.0
0
LINE
5
336
100
AcDbEntity
100
AcDbLine
8
2
62
256
370
-1
6
ByLayer
10
288.0
20
107.33126292
30
0.0
11
289.0
21
107.517440446
31
0.0
0
LINE
5
337
100
AcDbEntity
100
AcDbLine
8
2
62
256
370
-1
6
ByLayer
10
289.0
20
107.517440446
30
0.0
11
290.0
21
107.703296143
31
0.0
0
LINE
5
338
100
AcDbEntity
100
AcDbLine
8
2
62
256
370
-1
6
ByLayer
10
290.0
20
107.703296143
30
0.0
11
291.0
21
107.888831674
31
0.0
0
LINE
5
339
100
AcDbEntity
100
AcDbLine
8
2
62
256
370
-1
6
ByLayer
10
291.0
20
107.888831674
30
0.0
11
292.0
21
108.074048689
31
0.0
0
LINE
5
340
100
AcDbEntity
100
AcDbLine
8
2
62
256
370
-1
6
ByLayer
10
292.0
20
108.074048689
30
0.0
11
293.0
21
108.258948822
31
0.0
0
LINE
5
341
100
AcDbEntity
100
AcDbLine
8
2
62
256
370
-1
6
ByLayer
10
293.0
20
108.258948822
30
0.0
11
294.0
21
108.443533694
31
0.0
0
LINE
5
342
100
AcDbEntity
100
AcDbLine
8
2
62
256
370
-1
6
ByLayer
10
294.0
20
108.443533694
30
0.0
11
295.0
21
108.627804912
31
0.0
0
LINE
5
343
100
AcDbEntity
100
AcDbLine
8
2
62
256
370
-1
6
ByLayer
10
295.0
20
108.627804912
30
0.0
11
296.0
21
108.81176407
31
0.0
0
LINE
5
344
100
AcDbEntity
100
AcDbLine
8
2
62
256
370
-1
6
ByLayer
10
296.0
20
108.81176407
30
0.0
11
297.0
21
108.995412748
31
0.0
0
LINE
5
345
100
AcDbEntity
100
AcDbLine
8
2
62
256
370
-1
6
ByLayer
10
297.0
20
108.995412748
30
0.0
11
298.0
21
109.178752512
31
0.0
0
LINE
5
346
100
AcDbEntity
100
AcDbLine
8
2
62
256
370
-1
6
ByLayer
10
298.0
20
109.178752512
30
0.0
11
299.0
21
109.361784916
31
0.0
0
LINE
5
347
100
AcDbEntity
100
AcDbLine
8
2
62
256
370
-1
6
ByLayer
10
299.0
20
109.361784916
30
0.0
11
300.0
21
109.544511501
31
0.0
0
LINE
5
348
100
AcDbEntity
100
AcDbLine
8
2
62
256
370
-1
6
ByLayer
10
300.0
20
109.544511501
30
0.0
11
301.0
21
109.726933795
31
0.0
0
LINE
5
349
100
AcDbEntity
100
AcDbLine
8
2
62
256
370
-1
6
ByLayer
10
301.0
20
109.726933795
30
0.0
11
302.0
21
109.909053312
31
0.0
0
LINE
5
350
100
AcDbEntity
100
AcDbLine
8
2
62
256
370
-1
6
ByLayer
10
302.0
20
109.909053312
30
0.0
11
303.0
21
110.090871556
31
0.0
0
LINE
5
351
100
AcDbEntity
100
AcDbLine
8
2
62
256
370
-1
6
ByLayer
10
303.0
20
110.090871556
30
0.0
11
304.0
21
110.272390017
31
0.0
0
LINE
5
352
100
AcDbEntity
100
AcDbLine
8
2
62
256
370
-1
6
ByLayer
10
304.0
20
110.272390017
30
0.0
11
305.0
21
110.453610172
31
0.0
0
LINE
5
353
100
AcDbEntity
100
AcDbLine
8
2
62
256
370
-1
6
ByLayer
10
305.0
20
110.453610172
30
0.0
11
306.0
21
110.634533488
31
0.0
0
LINE
5
354
100
AcDbEntity
100
AcDbLine
8
2
62
256
370
-1
6
ByLayer
10
306.0
20
110.634533488
30
0.0
11
307.0
21
110.815161418
31
0.0
0
LINE
5
355
100
AcDbEntity
100
AcDbLine
8
2
62
256
370
-1
6
ByLayer
10
307.0
20
110.815161418
30
0.0
11
308.0
21
110.995495404
31
0.0
0
LINE
5
356
100
AcDbEntity
100
AcDbLine
8
2
62
256
370
-1
6
ByLayer
10
308.0
20
110.995495404
30
0.0
11
309.0
21
111.175536877
31
0.0
0
LINE
5
357
100
AcDbEntity
100
AcDbLine
8
2
62
256
370
-1
6
ByLayer
10
309.0
20
111.175536877
30
0.0
11
310.0
21
111.355287257
31
0.0
0
LINE
5
358
100
AcDbEntity
100
AcDbLine
8
2
62
256
370
-1
6
ByLayer
10
310.0
20
111.355287257
30
0.0
11
311.0
21
111.534747949
31
0.0
0
LINE
5
359
100
AcDbEntity
100
AcDbLine
8
2
62
256
370
-1
6
ByLayer
10
311.0
20
111.534747949
30
0.0
11
312.0
21
111.71392035
31
0.0
0
LINE
5
360
100
AcDbEntity
100
AcDbLine
8
2
62
256
370
-1
6
ByLayer
10
312.0
20
111.71392035
30
0.0
11
313.0
21
111.892805846
31
0.0
0
LINE
5
361
100
AcDbEntity
100
AcDbLine
8
2
62
256
370
-1
6
ByLayer
10
313.0
20
111.892805846
30
0.0
11
314.0
21
112.071405809
31
0.0
0
LINE
5
362
100
AcDbEntity
100
AcDbLine
8
2
62
256
370
-1
6
ByLayer
10
314.0
20
112.071405809
30
0.0
11
315.0
21
112.249721603
31
0.0
0
LINE
5
363
100
AcDbEntity
100
AcDbLine
8
2
62
256
370
-1
6
ByLayer
10
315.0
20
112.249721603
30
0.0
11
316.0
21
112.42775458
31
0.0
0
LINE
5
364
100
AcDbEntity
100
AcDbLine
8
2
62
256
370
-1
6
ByLayer
10
316.0
20
112.42775458
30
0.0
11
317.0
21
112.605506082
31
0.0
0
LINE
5
365
100
AcDbEntity
100
AcDbLine
8
2
62
256
370
-1
6
ByLayer
10
317.0
20
112.605506082
30
0.0
11
318.0
21
112.782977439
31
0.0
0
LINE
5
366
100
AcDbEntity
100
AcDbLine
8
2
62
256
370
-1
6
ByLayer
10
318.0
20
112.782977439
30
0.0
11
319.0
21
112.960169972
31
0.0
0
LINE
5
367
100
AcDbEntity
100
AcDbLine
8
2
62
256
370
-1
6
ByLayer
10
319.0
20
112.960169972
30
0.0
11
320.0
21
113.13708499
31
0.0
0
LINE
5
368
100
AcDbEntity
100
AcDbLine
8
2
62
256
370
-1
6
ByLayer
10
320.0
20
113.13708499
30
0.0
11
321.0
21
113.313723794
31
0.0
0
LINE
5
369
100
AcDbEntity
100
AcDbLine
8
2
62
256
370
-1
6
ByLayer
10
321.0
20
113.313723794
30
0.0
11
322.0
21
113.490087673
31
0.0
0
LINE
5
370
100
AcDbEntity
100
AcDbLine
8
2
62
256
370
-1
6
ByLayer
10
322.0
20
113.490087673
30
0.0
11
323.0
21
113.666177907
31
0.0
0
LINE
5
371
100
AcDbEntity
100
AcDbLine
8
2
62
256
370
-1
6
ByLayer
10
323.0
20
113.666177907
30
0.0
11
324.0
21
113.841995766
31
0.0
0
LINE
5
372
100
AcDbEntity
100
AcDbLine
8
2
62
256
370
-1
6
ByLayer
10
324.0
20
113.841995766
30
0.0
11
325.0
21
114.01754251
31
0.0
0
LINE
5
373
100
AcDbEntity
100
AcDbLine
8
2
62
256
370
-1
6
ByLayer
10
325.0
20
114.01754251
30
0.0
11
326.0
21
114.192819389
31
0.0
0
LINE
5
374
100
AcDbEntity
100
AcDbLine
8
2
62
256
370
-1
6
ByLayer
10
326.0
20
114.192819389
30
0.0
11
327.0
21
114.367827644
31
0.0
0
LINE
5
375
100
AcDbEntity
100
AcDbLine
8
2
62
256
370
-1
6
ByLayer
10
327.0
20
114.367827644
30
0.0
11
328.0
21
114.542568506
31
0.0
0
LINE
5
376
100
AcDbEntity
100
AcDbLine
8
2
62
256
370
-1
6
ByLayer
10
328.0
20
114.542568506
30
0.0
11
329.0
21
114.717043198
31
0.0
0
LINE
5
377
100
AcDbEntity
100
AcDbLine
8
2
62
256
370
-1
6
ByLayer
10
329.0
20
114.717043198
30
0.0
11
330.0
21
114.891252931
31
0.0
0
LINE
5
378
100
AcDbEntity
100
AcDbLine
8
2
62
256
370
-1
6
ByLayer
10
330.0
20
114.891252931
30
0.0
11
331.0
21
115.065198909
31
0.0
0
LINE
5
379
100
AcDbEntity
100
AcDbLine
8
2
62
256
370
-1
6
ByLayer
10
331.0
20
115.065198909
30
0.0
11
332.0
21
115.238882327
31
0.0
0
LINE
5
380
100
AcDbEntity
100
AcDbLine
8
2
62
256
370
-1
6
ByLayer
10
332.0
20
115.238882327
30
0.0
11
333.0
21
115.41230437
31
0.0
0
LINE
5
381
100
AcDbEntity
100
AcDbLine
8
2
62
256
370
-1
6
ByLayer
10
333.0
20
115.41230437
30
0.0
11
334.0
21
115.585466214
31
0.0
0
LINE
5
382
100
AcDbEntity
100
AcDbLine
8
2
62
256
370
-1
6
ByLayer
10
334.0
20
115.585466214
30
0.0
11
335.0
21
115.758369028
31
0.0
0
LINE
5
383
100
AcDbEntity
100
AcDbLine
8
2
62
256
370
-1
6
ByLayer
10
335.0
20
115.758369028
30
0.0
11
336.0
21
115.93101397
31
0.0
0
LINE
5
384
100
AcDbEntity
100
AcDbLine
8
2
62
256
370
-1
6
ByLayer
10
336.0
20
115.93101397
30
0.0
11
337.0
21
116.10340219
31
0.0
0
LINE
5
385
100
AcDbEntity
100
AcDbLine
8
2
62
256
370
-1
6
ByLayer
10
337.0
20
116.10340219
30
0.0
11
338.0
21
116.27553483
31
0.0
0
LINE
5
386
100
AcDbEntity
100
AcDbLine
8
2
62
256
370
-1
6
ByLayer
10
338.0
20
116.27553483
30
0.0
11
339.0
21
116.447413024
31
0.0
0
LINE
5
387
100
AcDbEntity
100
AcDbLine
8
2
62
256
370
-1
6
ByLayer
10
339.0
20
116.447413024
30
0.0
11
340.0
21
116.619037897
31
0.0
0
LINE
5
388
100
AcDbEntity
100
AcDbLine
8
2
62
256
370
-1
6
ByLayer
10
340.0
20
116.619037897
30
0.0
11
341.0
21
116.790410565
31
0.0
0
LINE
5
389
100
AcDbEntity
100
AcDbLine
8
2
62
256
370
-1
6
ByLayer
10
341.0
20
116.790410565
30
0.0
11
342.0
21
116.961532138
31
0.0
0
LINE
5
390
100
AcDbEntity
100
AcDbLine
8
2
62
256
370
-1
6
ByLayer
10
342.0
20
116.961532138
30
0.0
11
343.0
21
117.132403715
31
0.0
0
LINE
5
391
100
AcDbEntity
100
AcDbLine
8
2
62
256
370
-1
6
ByLayer
10
343.0
20
117.132403715
30
0.0
11
344.0
21
117.303026389
31
0.0
0
LINE
5
392
100
AcDbEntity
100
AcDbLine
8
2
62
256
370
-1
6
ByLayer
10
344.0
20
117.303026389
30
0.0
11
345.0
21
117.473401245
31
0.0
0
LINE
5
393
100
AcDbEntity
100
AcDbLine
8
2
62
256
370
-1
6
ByLayer
10
345.0
20
117.473401245
30
0.0
11
346.0
21
117.643529359
31
0.0
0
LINE
5
394
100
AcDbEntity
100
AcDbLine
8
2
62
256
370
-1
6
ByLayer
10
346.0
20
117.643529359
30
0.0
11
347.0
21
117.8134118
31
0.0
0
LINE
5
395
100
AcDbEntity
100
AcDbLine
8
2
62
256
370
-1
6
ByLayer
10
347.0
20
117.8134118
30
0.0
11
348.0
21
117.98304963
31
0.0
0
LINE
5
396
100
AcDbEntity
100
AcDbLine
8
2
62
256
370
-1
6
ByLayer
10
348.0
20
117.98304963
30
0.0
11
349.0
21
118.152443902
31
0.0
0
LINE
5
397
100
AcDbEntity
100
AcDbLine
8
2
62
256
370
-1
6
ByLayer
10
349.0
20
118.152443902
30
0.0
11
350.0
21
118.321595662
31
0.0
0
LINE
5
398
100
AcDbEntity
100
AcDbLine
8
2
62
256
370
-1
6
ByLayer
10
350.0
20
118.321595662
30
0.0
11
351.0
21
118.490505949
31
0.0
0
LINE
5
399
100
AcDbEntity
100
AcDbLine
8
2
62
256
370
-1
6
ByLayer
10
351.0
20
118.490505949
30
0.0
11
352.0
21
118.659175794
31
0.0
0
LINE
5
400
100
AcDbEntity
100
AcDbLine
8
2
62
256
370
-1
6
ByLayer
10
352.0
20
118.659175794
30
0.0
11
353.0
21
118.82760622
31
0.0
0
LINE
5
401
100
AcDbEntity
100
AcDbLine
8
2
62
256
370
-1
6
ByLayer
10
353.0
20
118.82760622
30
0.0
11
354.0
21
118.995798245
31
0.0
0
LINE
5
402
100
AcDbEntity
100
AcDbLine
8
2
62
256
370
-1
6
ByLayer
10
354.0
20
118.995798245
30
0.0
11
355.0
21
119.163752878
31
0.0
0
LINE
5
403
100
AcDbEntity
100
AcDbLine
8
2
62
256
370
-1
6
ByLayer
10
355.0
20
119.163752878
30
0.0
11
356.0
21
119.331471121
31
0.0
0
LINE
5
404
100
AcDbEntity
100
AcDbLine
8
2
62
256
370
-1
6
ByLayer
10
356.0
20
119.331471121
30
0.0
11
357.0
21
119.49895397
31
0.0
0
LINE
5
405
100
AcDbEntity
100
AcDbLine
8
2
62
256
370
-1
6
ByLayer
10
357.0
20
119.49895397
30
0.0
11
358.0
21
119.666202413
31
0.0
0
LINE
5
406
100
AcDbEntity
100
AcDbLine
8
2
62
256
370
-1
6
ByLayer
10
358.0
20
119.666202413
30
0.0
11
359.0
21
119.833217432
31
0.0
0
LINE
5
407
100
AcDbEntity
100
AcDbLine
8
2
62
256
370
-1
6
ByLayer
10
359.0
20
119.833217432
30
0.0
11
360.0
21
120.0
31
0.0
0
LINE
5
408
100
AcDbEntity
100
AcDbLine
8
2
62
256
370
-1
6
ByLayer
10
360.0
20
120.0
30
0.0
11
361.0
21
120.166551086
31
0.0
0
LINE
5
409
100
AcDbEntity
100
AcDbLine
8
2
62
256
370
-1
6
ByLayer
10
361.0
20
120.166551086
30
0.0
11
362.0
21
120.332871652
31
0.0
0
LINE
5
410
100
AcDbEntity
100
AcDbLine
8
2
62
256
370
-1
6
ByLayer
10
362.0
20
120.332871652
30
0.0
11
363.0
21
120.498962651
31
0.0
0
LINE
5
411
100
AcDbEntity
100
AcDbLine
8
2
62
256
370
-1
6
ByLayer
10
363.0
20
120.498962651
30
0.0
11
364.0
21
120.664825032
31
0.0
0
LINE
5
412
100
AcDbEntity
100
AcDbLine
8
2
62
256
370
-1
6
ByLayer
10
364.0
20
120.664825032
30
0.0
11
365.0
21
120.830459736
31
0.0
0
LINE
5
413
100
AcDbEntity
100
AcDbLine
8
2
62
256
370
-1
6
ByLayer
10
365.0
20
120.830459736
30
0.0
11
366.0
21
120.995867698
31
0.0
0
LINE
5
414
100
AcDbEntity
100
AcDbLine
8
2
62
256
370
-1
6
ByLayer
10
366.0
20
120.995867698
30
0.0
11
367.0
21
121.161049847
31
0.0
0
LINE
5
415
100
AcDbEntity
100
AcDbLine
8
2
62
256
370
-1
6
ByLayer
10
367.0
20
121.161049847
30
0.0
11
368.0
21
121.326007105
31
0.0
0
LINE
5
416
100
AcDbEntity
100
AcDbLine
8
2
62
256
370
-1
6
ByLayer
10
368.0
20
121.326007105
30
0.0
11
369.0
21
121.490740388
31
0.0
0
LINE
5
417
100
AcDbEntity
100
AcDbLine
8
2
62
256
370
-1
6
ByLayer
10
369.0
20
121.490740388
30
0.0
11
370.0
21
121.655250606
31
0.0
0
LINE
5
418
100
AcDbEntity
100
AcDbLine
8
2
62
256
370
-1
6
ByLayer
10
370.0
20
121.655250606
30
0.0
11
371.0
21
121.819538663
31
0.0
0
LINE
5
419
100
AcDbEntity
100
AcDbLine
8
2
62
256
370
-1
6
ByLayer
10
371.0
20
121.819538663
30
0.0
11
372.0
21
121.983605456
31
0.0
0
LINE
5
420
100
AcDbEntity
100
AcDbLine
8
2
62
256
370
-1
6
ByLayer
10
372.0
20
121.983605456
30
0.0
11
373.0
21
122.147451877
31
0.0
0
LINE
5
421
100
AcDbEntity
100
AcDbLine
8
2
62
256
370
-1
6
ByLayer
10
373.0
20
122.147451877
30
0.0
11
374.0
21
122.311078811
31
0.0
0
LINE
5
422
100
AcDbEntity
100
AcDbLine
8
2
62
256
370
-1
6
ByLayer
10
374.0
20
122.311078811
30
0.0
11
375.0
21
122.474487139
31
0.0
0
LINE
5
423
100
AcDbEntity
100
AcDbLine
8
2
62
256
370
-1
6
ByLayer
10
375.0
20
122.474487139
30
0.0
11
376.0
21
122.637677734
31
0.0
0
LINE
5
424
100
AcDbEntity
100
AcDbLine
8
2
62
256
370
-1
6
ByLayer
10
376.0
20
122.637677734
30
0.0
11
377.0
21
122.800651464
31
0.0
0
LINE
5
425
100
AcDbEntity
100
AcDbLine
8
2
62
256
370
-1
6
ByLayer
10
377.0
20
122.800651464
30
0.0
11
378.0
21
122.963409192
31
0.0
0
LINE
5
426
100
AcDbEntity
100
AcDbLine
8
2
62
256
370
-1
6
ByLayer
10
378.0
20
122.963409192
30
0.0
11
379.0
21
123.125951773
31
0.0
0
LINE
5
427
100
AcDbEntity
100
AcDbLine
8
2
62
256
370
-1
6
ByLayer
10
379.0
20
123.125951773
30
0.0
11
380.0
21
123.288280059
31
0.0
0
LINE
5
428
100
AcDbEntity
100
AcDbLine
8
2
62
256
370
-1
6
ByLayer
10
380.0
20
123.288280059
30
0.0
11
381.0
21
123.450394896
31
0.0
0
LINE
5
429
100
AcDbEntity
100
AcDbLine
8
2
62
256
370
-1
6
ByLayer
10
381.0
20
123.450394896
30
0.0
11
382.0
21
123.612297123
31
0.0
0
LINE
5
430
100
AcDbEntity
100
AcDbLine
8
2
62
256
370
-1
6
ByLayer
10
382.0
20
123.612297123
30
0.0
11
383.0
21
123.773987574
31
0.0
0
LINE
5
431
100
AcDbEntity
100
AcDbLine
8
2
62
256
370
-1
6
ByLayer
10
383.0
20
123.773987574
30
0.0
11
384.0
21
123.935467079
31
0.0
0
LINE
5
432
100
AcDbEntity
100
AcDbLine
8
2
62
256
370
-1
6
ByLayer
10
384.0
20
123.935467079
30
0.0
11
385.0
21
124.09673646
31
0.0
0
LINE
5
433
100
AcDbEntity
100
AcDbLine
8
2
62
256
370
-1
6
ByLayer
10
385.0
20
124.09673646
30
0.0
11
386.0
21
124.257796536
31
0.0
0
LINE
5
434
100
AcDbEntity
100
AcDbLine
8
2
62
256
370
-1
6
ByLayer
10
386.0
20
124.257796536
30
0.0
11
387.0
21
124.41864812
31
0.0
0
LINE
5
435
100
AcDbEntity
100
AcDbLine
8
2
62
256
370
-1
6
ByLayer
10
387.0
20
124.41864812
30
0.0
11
388.0
21
124.579292019
31
0.0
0
LINE
5
436
100
AcDbEntity
100
AcDbLine
8
2
62
256
370
-1
6
ByLayer
10
388.0
20
124.579292019
30
0.0
11
389.0
21
124.739729036
31
0.0
0
LINE
5
437
100
AcDbEntity
100
AcDbLine
8
2
62
256
370
-1
6
ByLayer
10
389.0
20
124.739729036
30
0.0
11
390.0
21
124.899959968
31
0.0
0
LINE
5
438
100
AcDbEntity
100
AcDbLine
8
2
62
256
370
-1
6
ByLayer
10
390.0
20
124.899959968
30
0.0
11
391.0
21
125.059985607
31
0.0
0
LINE
5
439
100
AcDbEntity
100
AcDbLine
8
2
62
256
370
-1
6
ByLayer
10
391.0
20
125.059985607
30
0.0
11
392.0
21
125.21980674
31
0.0
0
LINE
5
440
100
AcDbEntity
100
AcDbLine
8
2
62
256
370
-1
6
ByLayer
10
392.0
20
125.21980674
30
0.0
11
393.0
21
125.379424149
31
0.0
0
LINE
5
441
100
AcDbEntity
100
AcDbLine
8
2
62
256
370
-1
6
ByLayer
10
393.0
20
125.379424149
30
0.0
11
394.0
21
125.538838612
31
0.0
0
LINE
5
442
100
AcDbEntity
100
AcDbLine
8
2
62
256
370
-1
6
ByLayer
10
394.0
20
125.538838612
30
0.0
11
395.0
21
125.6980509
31
0.0
0
LINE
5
443
100
AcDbEntity
100
AcDbLine
8
2
62
256
370
-1
6
ByLayer
10
395.0
20
125.6980509
30
0.0
11
396.0
21
125.85706178
31
0.0
0
LINE
5
444
100
AcDbEntity
100
AcDbLine
8
2
62
256
370
-1
6
ByLayer
10
396.0
20
125.85706178
30
0.0
11
397.0
21
126.015872016
31
0.0
0
LINE
5
445
100
AcDbEntity
100
AcDbLine
8
2
62
256
370
-1
6
ByLayer
10
397.0
20
126.015872016
30
0.0
11
398.0
21
126.174482365
31
0.0
0
LINE
5
446
100
AcDbEntity
100
AcDbLine
8
2
62
256
370
-1
6
ByLayer
10
398.0
20
126.174482365
30
0.0
11
399.0
21
126.332893579
31
0.0
0
LINE
5
447
100
AcDbEntity
100
AcDbLine
8
2
62
256
370
-1
6
ByLayer
10
399.0
20
126.332893579
30
0.0
11
400.0
21
126.491106407
31
0.0
0
LINE
5
448
100
AcDbEntity
100
AcDbLine
8
2
62
256
370
-1
6
ByLayer
10
400.0
20
126.491106407
30
0.0
11
401.0
21
126.649121592
31
0.0
0
LINE
5
449
100
AcDbEntity
100
AcDbLine
8
2
62
256
370
-1
6
ByLayer
10
401.0
20
126.649121592
30
0.0
11
402.0
21
126.806939873
31
0.0
0
LINE
5
450
100
AcDbEntity
100
AcDbLine
8
2
62
256
370
-1
6
ByLayer
10
402.0
20
126.806939873
30
0.0
11
403.0
21
126.964561985
31
0.0
0
LINE
5
451
100
AcDbEntity
100
AcDbLine
8
2
62
256
370
-1
6
ByLayer
10
403.0
20
126.964561985
30
0.0
11
404.0
21
127.121988657
31
0.0
0
LINE
5
452
100
AcDbEntity
100
AcDbLine
8
2
62
256
370
-1
6
ByLayer
10
404.0
20
127.121988657
30
0.0
11
405.0
21
127.279220614
31
0.0
0
LINE
5
453
100
AcDbEntity
100
AcDbLine
8
2
62
256
370
-1
6
ByLayer
10
405.0
20
127.279220614
30
0.0
11
406.0
21
127.436258577
31
0.0
0
LINE
5
454
100
AcDbEntity
100
AcDbLine
8
2
62
256
370
-1
6
ByLayer
10
406.0
20
127.436258577
30
0.0
11
407.0
21
127.593103262
31
0.0
0
LINE
5
455
100
AcDbEntity
100
AcDbLine
8
2
62
256
370
-1
6
ByLayer
10
407.0
20
127.593103262
30
0.0
11
408.0
21
127.749755381
31
0.0
0
LINE
5
456
100
AcDbEntity
100
AcDbLine
8
2
62
256
370
-1
6
ByLayer
10
408.0
20
127.749755381
30
0.0
11
409.0
21
127.906215643
31
0.0
0
LINE
5
457
100
AcDbEntity
100
AcDbLine
8
2
62
256
370
-1
6
ByLayer
10
409.0
20
127.906215643
30
0.0
11
410.0
21
128.062484749
31
0.0
0
LINE
5
458
100
AcDbEntity
100
AcDbLine
8
2
62
256
370
-1
6
ByLayer
10
410.0
20
128.062484749
30
0.0
11
411.0
21
128.218563399
31
0.0
0
LINE
5
459
100
AcDbEntity
100
AcDbLine
8
2
62
256
370
-1
6
ByLayer
10
411.0
20
128.218563399
30
0.0
11
412.0
21
128.374452287
31
0.0
0
LINE
5
460
100
AcDbEntity
100
AcDbLine
8
2
62
256
370
-1
6
ByLayer
10
412.0
20
128.374452287
30
0.0
11
413.0
21
128.530152104
31
0.0
0
LINE
5
461
100
AcDbEntity
100
AcDbLine
8
2
62
256
370
-1
6
ByLayer
10
413.0
20
128.530152104
30
0.0
11
414.0
21
128.685663537
31
0.0
0
LINE
5
462
100
AcDbEntity
100
AcDbLine
8
2
62
256
370
-1
6
ByLayer
10
414.0
20
128.685663537
30
0.0
11
415.0
21
128.840987267
31
0.0
0
LINE
5
463
100
AcDbEntity
100
AcDbLine
8
2
62
256
370
-1
6
ByLayer
10
415.0
20
128.840987267
30
0.0
11
416.0
21
128.996123973
31
0.0
0
LINE
5
464
100
AcDbEntity
100
AcDbLine
8
2
62
256
370
-1
6
ByLayer
10
416.0
20
128.996123973
30
0.0
11
417.0
21
129.151074328
31
0.0
0
LINE
5
465
100
AcDbEntity
100
AcDbLine
8
2
62
256
370
-1
6
ByLayer
10
417.0
20
129.151074328
30
0.0
11
418.0
21
129.305839002
31
0.0
0
LINE
5
466
100
AcDbEntity
100
AcDbLine
8
2
62
256
370
-1
6
ByLayer
10
418.0
20
129.305839002
30
0.0
11
419.0
21
129.460418661
31
0.0
0
LINE
5
467
100
AcDbEntity
100
AcDbLine
8
2
62
256
370
-1
6
ByLayer
10
419.0
20
129.460418661
30
0.0
11
420.0
21
129.614813968
31
0.0
0
LINE
5
468
100
AcDbEntity
100
AcDbLine
8
2
62
256
370
-1
6
ByLayer
10
420.0
20
129.614813968
30
0.0
11
421.0
21
129.76902558
31
0.0
0
LINE
5
469
100
AcDbEntity
100
AcDbLine
8
2
62
256
370
-1
6
ByLayer
10
421.0
20
129.76902558
30
0.0
11
422.0
21
129.923054151
31
0.0
0
LINE
5
470
100
AcDbEntity
100
AcDbLine
8
2
62
256
370
-1
6
ByLayer
10
422.0
20
129.923054151
30
0.0
11
423.0
21
130.076900332
31
0.0
0
LINE
5
471
100
AcDbEntity
100
AcDbLine
8
2
62
256
370
-1
6
ByLayer
10
423.0
20
130.076900332
30
0.0
11
424.0
21
130.230564769
31
0.0
0
LINE
5
472
100
AcDbEntity
100
AcDbLine
8
2
62
256
370
-1
6
ByLayer
10
424.0
20
130.230564769
30
0.0
11
425.0
21
130.384048104
31
0.0
0
LINE
5
473
100
AcDbEntity
100
AcDbLine
8
2
62
256
370
-1
6
ByLayer
10
425.0
20
130.384048104
30
0.0
11
426.0
21
130.537350977
31
0.0
0
LINE
5
474
100
AcDbEntity
100
AcDbLine
8
2
62
256
370
-1
6
ByLayer
10
426.0
20
130.537350977
30
0.0
11
427.0
21
130.690474022
31
0.0
0
LINE
5
475
100
AcDbEntity
100
AcDbLine
8
2
62
256
370
-1
6
ByLayer
10
427.0
20
130.690474022
30
0.0
11
428.0
21
130.84341787
31
0.0
0
LINE
5
476
100
AcDbEntity
100
AcDbLine
8
2
62
256
370
-1
6
ByLayer
10
428.0
20
130.84341787
30
0.0
11
429.0
21
130.996183151
31
0.0
0
LINE
5
477
100
AcDbEntity
100
AcDbLine
8
2
62
256
370
-1
6
ByLayer
10
429.0
20
130.996183151
30
0.0
11
430.0
21
131.148770486
31
0.0
0
LINE
5
478
100
AcDbEntity
100
AcDbLine
8
2
62
256
370
-1
6
ByLayer
10
430.0
20
131.148770486
30
0.0
11
431.0
21
131.301180497
31
0.0
0
LINE
5
479
100
AcDbEntity
100
AcDbLine
8
2
62
256
370
-1
6
ByLayer
10
431.0
20
131.301180497
30
0.0
11
432.0
21
131.453413801
31
0.0
0
LINE
5
480
100
AcDbEntity
100
AcDbLine
8
2
62
256
370
-1
6
ByLayer
10
432.0
20
131.453413801
30
0.0
11
433.0
21
131.605471011
31
0.0
0
LINE
5
481
100
AcDbEntity
100
AcDbLine
8
2
62
256
370
-1
6
ByLayer
10
433.0
20
131.605471011
30
0.0
11
434.0
21
131.757352736
31
0.0
0
LINE
5
482
100
AcDbEntity
100
AcDbLine
8
2
62
256
370
-1
6
ByLayer
10
434.0
20
131.757352736
30
0.0
11
435.0
21
131.909059583
31
0.0
0
LINE
5
483
100
AcDbEntity
100
AcDbLine
8
2
62
256
370
-1
6
ByLayer
10
435.0
20
131.909059583
30
0.0
11
436.0
21
132.060592154
31
0.0
0
LINE
5
484
100
AcDbEntity
100
AcDbLine
8
2
62
256
370
-1
6
ByLayer
10
436.0
20
132.060592154
30
0.0
11
437.0
21
132.211951048
31
0.0
0
LINE
5
485
100
AcDbEntity
100
AcDbLine
8
2
62
256
370
-1
6
ByLayer
10
437.0
20
132.211951048
30
0.0
11
438.0
21
132.363136862
31
0.0
0
LINE
5
486
100
AcDbEntity
100
AcDbLine
8
2
62
256
370
-1
6
ByLayer
10
438.0
20
132.363136862
30
0.0
11
439.0
21
132.514150188
31
0.0
0
LINE
5
487
100
AcDbEntity
100
AcDbLine
8
2
62
256
370
-1
6
ByLayer
10
439.0
20
132.514150188
30
0.0
11
440.0
21
132.664991614
31
0.0
0
LINE
5
488
100
AcDbEntity
100
AcDbLine
8
2
62
256
370
-1
6
ByLayer
10
440.0
20
132.664991614
30
0.0
11
441.0
21
132.815661727
31
0.0
0
LINE
5
489
100
AcDbEntity
100
AcDbLine
8
2
62
256
370
-1
6
ByLayer
10
441.0
20
132.815661727
30
0.0
11
442.0
21
132.966161109
31
0.0
0
LINE
5
490
100
AcDbEntity
100
AcDbLine
8
2
62
256
370
-1
6
ByLayer
10
442.0
20
132.966161109
30
0.0
11
443.0
21
133.116490338
31
0.0
0
LINE
5
491
100
AcDbEntity
100
AcDbLine
8
2
62
256
370
-1
6
ByLayer
10
443.0
20
133.116490338
30
0.0
11
444.0
21
133.266649992
31
0.0
0
LINE
5
492
100
AcDbEntity
100
AcDbLine
8
2
62
256
370
-1
6
ByLayer
10
444.0
20
133.266649992
30
0.0
11
445.0
21
133.416640641
31
0.0
0
LINE
5
493
100
AcDbEntity
100
AcDbLine
8
2
62
256
370
-1
6
ByLayer
10
445.0
20
133.416640641
30
0.0
11
446.0
21
133.566462857
31
0.0
0
LINE
5
494
100
AcDbEntity
100
AcDbLine
8
2
62
256
370
-1
6
ByLayer
10
446.0
20
133.566462857
30
0.0
11
447.0
21
133.716117204
31
0.0
0
LINE
5
495
100
AcDbEntity
100
AcDbLine
8
2
62
256
370
-1
6
ByLayer
10
447.0
20
133.716117204
30
0.0
11
448.0
21
133.865604245
31
0.0
0
LINE
5
496
100
AcDbEntity
100
AcDbLine
8
2
62
256
370
-1
6
ByLayer
10
448.0
20
133.865604245
30
0.0
11
449.0
21
134.014924542
31
0.0
0
LINE
5
497
100
AcDbEntity
100
AcDbLine
8
2
62
256
370
-1
6
ByLayer
10
449.0
20
134.014924542
30
0.0
11
450.0
21
134.16407865
31
0.0
0
LINE
5
498
100
AcDbEntity
100
AcDbLine
8
2
62
256
370
-1
6
ByLayer
10
450.0
20
134.16407865
30
0.0
11
451.0
21
134.313067123
31
0.0
0
LINE
5
499
100
AcDbEntity
100
AcDbLine
8
2
62
256
370
-1
6
ByLayer
10
451.0
20
134.313067123
30
0.0
11
452.0
21
134.461890512
31
0.0
0
LINE
5
500
100
AcDbEntity
100
AcDbLine
8
2
62
256
370
-1
6
ByLayer
10
452.0
20
134.461890512
30
0.0
11
453.0
21
134.610549364
31
0.0
0
LINE
5
501
100
AcDbEntity
100
AcDbLine
8
2
62
256
370
-1
6
ByLayer
10
453.0
20
134.610549364
30
0.0
11
454.0
21
134.759044223
31
0.0
0
LINE
5
502
100
AcDbEntity
100
AcDbLine
8
2
62
256
370
-1
6
ByLayer
10
454.0
20
134.759044223
30
0.0
11
455.0
21
134.907375632
31
0.0
0
LINE
5
503
100
AcDbEntity
100
AcDbLine
8
2
62
256
370
-1
6
ByLayer
10
455.0
20
134.907375632
30
0.0
11
456.0
21
135.055544129
31
0.0
0
LINE
5
504
100
AcDbEntity
100
AcDbLine
8
2
62
256
370
-1
6
ByLayer
10
456.0
20
135.055544129
30
0.0
11
457.0
21
135.203550249
31
0.0
0
LINE
5
505
100
AcDbEntity
100
AcDbLine
8
2
62
256
370
-1
6
ByLayer
10
457.0
20
135.203550249
30
0.0
11
458.0
21
135.351394526
31
0.0
0
LINE
5
506
100
AcDbEntity
100
AcDbLine
8
2
62
256
370
-1
6
ByLayer
10
458.0
20
135.351394526
30
0.0
11
459.0
21
135.499077488
31
0.0
0
LINE
5
507
100
AcDbEntity
100
AcDbLine
8
2
62
256
370
-1
6
ByLayer
10
459.0
20
135.499077488
30
0.0
11
460.0
21
135.646599663
31
0.0
0
LINE
5
508
100
AcDbEntity
100
AcDbLine
8
2
62
256
370
-1
6
ByLayer
10
460.0
20
135.646599663
30
0.0
11
461.0
21
135.793961574
31
0.0
0
LINE
5
509
100
AcDbEntity
100
AcDbLine
8
2
62
256
370
-1
6
ByLayer
10
461.0
20
135.793961574
30
0.0
11
462.0
21
135.941163744
31
0.0
0
LINE
5
510
100
AcDbEntity
100
AcDbLine
8
2
62
256
370
-1
6
ByLayer
10
462.0
20
135.941163744
30
0.0
11
463.0
21
136.08820669
31
0.0
0
LINE
5
511
100
AcDbEntity
100
AcDbLine
8
2
62
256
370
-1
6
ByLayer
10
463.0
20
136.08820669
30
0.0
11
464.0
21
136.235090927
31
0.0
0
LINE
5
512
100
AcDbEntity
100
AcDbLine
8
2
62
256
370
-1
6
ByLayer
10
464.0
20
136.235090927
30
0.0
11
465.0
21
136.38181697
31
0.0
0
LINE
5
513
100
AcDbEntity
100
AcDbLine
8
2
62
256
370
-1
6
ByLayer
10
465.0
20
136.38181697
30
0.0
11
466.0
21
136.528385327
31
0.0
0
LINE
5
514
100
AcDbEntity
100
AcDbLine
8
2
62
256
370
-1
6
ByLayer
10
466.0
20
136.528385327
30
0.0
11
467.0
21
136.674796506
31
0.0
0
LINE
5
515
100
AcDbEntity
100
AcDbLine
8
2
62
256
370
-1
6
ByLayer
10
467.0
20
136.674796506
30
0.0
11
468.0
21
136.821051012
31
0.0
0
LINE
5
516
100
AcDbEntity
100
AcDbLine
8
2
62
256
370
-1
6
ByLayer
10
468.0
20
136.821051012
30
0.0
11
469.0
21
136.967149346
31
0.0
0
LINE
5
517
100
AcDbEntity
100
AcDbLine
8
2
62
256
370
-1
6
ByLayer
10
469.0
20
136.967149346
30
0.0
11
470.0
21
137.113092008
31
0.0
0
LINE
5
518
100
AcDbEntity
100
AcDbLine
8
2
62
256
370
-1
6
ByLayer
10
470.0
20
137.113092008
30
0.0
11
471.0
21
137.258879494
31
0.0
0
LINE
5
519
100
AcDbEntity
100
AcDbLine
8
2
62
256
370
-1
6
ByLayer
10
471.0
20
137.258879494
30
0.0
11
472.0
21
137.404512299
31
0.0
0
LINE
5
520
100
AcDbEntity
100
AcDbLine
8
2
62
256
370
-1
6
ByLayer
10
472.0
20
137.404512299
30
0.0
11
473.0
21
137.549990912
31
0.0
0
LINE
5
521
100
AcDbEntity
100
AcDbLine
8
2
62
256
370
-1
6
ByLayer
10
473.0
20
137.549990912
30
0.0
11
474.0
21
137.695315824
31
0.0
0
LINE
5
522
100
AcDbEntity
100
AcDbLine
8
2
62
256
370
-1
6
ByLayer
10
474.0
20
137.695315824
30
0.0
11
475.0
21
137.840487521
31
0.0
0
LINE
5
523
100
AcDbEntity
100
AcDbLine
8
2
62
256
370
-1
6
ByLayer
10
475.0
20
137.840487521
30
0.0
11
476.0
21
137.985506485
31
0.0
0
LINE
5
524
100
AcDbEntity
100
AcDbLine
8
2
62
256
370
-1
6
ByLayer
10
476.0
20
137.985506485
30
0.0
11
477.0
21
138.130373199
31
0.0
0
LINE
5
525
100
AcDbEntity
100
AcDbLine
8
2
62
256
370
-1
6
ByLayer
10
477.0
20
138.130373199
30
0.0
11
478.0
21
138.27508814
31
0.0
0
LINE
5
526
100
AcDbEntity
100
AcDbLine
8
2
62
256
370
-1
6
ByLayer
10
478.0
20
138.27508814
30
0.0
11
479.0
21
138.419651784
31
0.0
0
LINE
5
527
100
AcDbEntity
100
AcDbLine
8
2
62
256
370
-1
6
ByLayer
10
479.0
20
138.419651784
30
0.0
11
480.0
21
138.564064606
31
0.0
0
LINE
5
528
100
AcDbEntity
100
AcDbLine
8
2
62
256
370
-1
6
ByLayer
10
480.0
20
138.564064606
30
0.0
11
481.0
21
138.708327075
31
0.0
0
LINE
5
529
100
AcDbEntity
100
AcDbLine
8
2
62
256
370
-1
6
ByLayer
10
481.0
20
138.708327075
30
0.0
11
482.0
21
138.852439662
31
0.0
0
LINE
5
530
100
AcDbEntity
100
AcDbLine
8
2
62
256
370
-1
6
ByLayer
10
482.0
20
138.852439662
30
0.0
11
483.0
21
138.996402831
31
0.0
0
LINE
5
531
100
AcDbEntity
100
AcDbLine
8
2
62
256
370
-1
6
ByLayer
10
483.0
20
138.996402831
30
0.0
11
484.0
21
139.140217047
31
0.0
0
LINE
5
532
100
AcDbEntity
100
AcDbLine
8
2
62
256
370
-1
6
ByLayer
10
484.0
20
139.140217047
30
0.0
11
485.0
21
139.283882772
31
0.0
0
LINE
5
533
100
AcDbEntity
100
AcDbLine
8
2
62
256
370
-1
6
ByLayer
10
485.0
20
139.283882772
30
0.0
11
486.0
21
139.427400463
31
0.0
0
LINE
5
534
100
AcDbEntity
100
AcDbLine
8
2
62
256
370
-1
6
ByLayer
10
486.0
20
139.427400463
30
0.0
11
487.0
21
139.570770579
31
0.0
0
LINE
5
535
100
AcDbEntity
100
AcDbLine
8
2
62
256
370
-1
6
ByLayer
10
487.0
20
139.570770579
30
0.0
11
488.0
21
139.713993573
31
0.0
0
LINE
5
536
100
AcDbEntity
100
AcDbLine
8
2
62
256
370
-1
6
ByLayer
10
488.0
20
139.713993573
30
0.0
11
489.0
21
139.857069896
31
0.0
0
LINE
5
537
100
AcDbEntity
100
AcDbLine
8
2
62
256
370
-1
6
ByLayer
10
489.0
20
139.857069896
30
0.0
11
490.0
21
140.0
31
0.0
0
LINE
5
538
100
AcDbEntity
100
AcDbLine
8
2
62
256
370
-1
6
ByLayer
10
490.0
20
140.0
30
0.0
11
491.0
21
140.142784331
31
0.0
0
LINE
5
539
100
AcDbEntity
100
AcDbLine
8
2
62
256
370
-1
6
ByLayer
10
491.0
20
140.142784331
30
0.0
11
492.0
21
140.285423334
31
0.0
0
LINE
5
540
100
AcDbEntity
100
AcDbLine
8
2
62
256
370
-1
6
ByLayer
10
492.0
20
140.285423334
30
0.0
11
493.0
21
140.427917452
31
0.0
0
LINE
5
541
100
AcDbEntity
100
AcDbLine
8
2
62
256
370
-1
6
ByLayer
10
493.0
20
140.427917452
30
0.0
11
494.0
21
140.570267126
31
0.0
0
LINE
5
542
100
AcDbEntity
100
AcDbLine
8
2
62
256
370
-1
6
ByLayer
10
494.0
20
140.570267126
30
0.0
11
495.0
21
140.712472795
31
0.0
0
LINE
5
543
100
AcDbEntity
100
AcDbLine
8
2
62
256
370
-1
6
ByLayer
10
495.0
20
140.712472795
30
0.0
11
496.0
21
140.854534893
31
0.0
0
LINE
5
544
100
AcDbEntity
100
AcDbLine
8
2
62
256
370
-1
6
ByLayer
10
496.0
20
140.854534893
30
0.0
11
497.0
21
140.996453856
31
0.0
0
LINE
5
545
100
AcDbEntity
100
AcDbLine
8
2
62
256
370
-1
6
ByLayer
10
497.0
20
140.996453856
30
0.0
11
498.0
21
141.138230115
31
0.0
0
LINE
5
546
100
AcDbEntity
100
AcDbLine
8
2
62
256
370
-1
6
ByLayer
10
498.0
20
141.138230115
30
0.0
11
499.0
21
141.2798641
31
0.0
0
LINE
5
547
100
AcDbEntity
100
AcDbLine
8
2
62
256
370
-1
6
ByLayer
10
499.0
20
141.2798641
30
0.0
11
500.0
21
141.421356237
31
0.0
0
LINE
5
548
100
AcDbEntity
100
AcDbLine
8
2
62
256
370
-1
6
ByLayer
10
0.0
20
0.0
30
0.0
11
1.0
21
-6.32455532034
31
0.0
0
LINE
5
549
100
AcDbEntity
100
AcDbLine
8
2
62
256
370
-1
6
ByLayer
10
1.0
20
-6.32455532034
30
0.0
11
2.0
21
-8.94427191
31
0.0
0
LINE
5
550
100
AcDbEntity
100
AcDbLine
8
2
62
256
370
-1
6
ByLayer
10
2.0
20
-8.94427191
30
0.0
11
3.0
21
-10.9544511501
31
0.0
0
LINE
5
551
100
AcDbEntity
100
AcDbLine
8
2
62
256
370
-1
6
ByLayer
10
3.0
20
-10.9544511501
30
0.0
11
4.0
21
-12.6491106407
31
0.0
0
LINE
5
552
100
AcDbEntity
100
AcDbLine
8
2
62
256
370
-1
6
ByLayer
10
4.0
20
-12.6491106407
30
0.0
11
5.0
21
-14.1421356237
31
0.0
0
LINE
5
553
100
AcDbEntity
100
AcDbLine
8
2
62
256
370
-1
6
ByLayer
10
5.0
20
-14.1421356237
30
0.0
11
6.0
21
-15.4919333848
31
0.0
0
LINE
5
554
100
AcDbEntity
100
AcDbLine
8
2
62
256
370
-1
6
ByLayer
10
6.0
20
-15.4919333848
30
0.0
11
7.0
21
-16.7332005307
31
0.0
0
LINE
5
555
100
AcDbEntity
100
AcDbLine
8
2
62
256
370
-1
6
ByLayer
10
7.0
20
-16.7332005307
30
0.0
11
8.0
21
-17.88854382
31
0.0
0
LINE
5
556
100
AcDbEntity
100
AcDbLine
8
2
62
256
370
-1
6
ByLayer
10
8.0
20
-17.88854382
30
0.0
11
9.0
21
-18.973665961
31
0.0
0
LINE
5
557
100
AcDbEntity
100
AcDbLine
8
2
62
256
370
-1
6
ByLayer
10
9.0
20
-18.973665961
30
0.0
11
10.0
21
-20.0
31
0.0
0
LINE
5
558
100
AcDbEntity
100
AcDbLine
8
2
62
256
370
-1
6
ByLayer
10
10.0
20
-20.0
30
0.0
11
11.0
21
-20.9761769634
31
0.0
0
LINE
5
559
100
AcDbEntity
100
AcDbLine
8
2
62
256
370
-1
6
ByLayer
10
11.0
20
-20.9761769634
30
0.0
11
12.0
21
-21.9089023002
31
0.0
0
LINE
5
560
100
AcDbEntity
100
AcDbLine
8
2
62
256
370
-1
6
ByLayer
10
12.0
20
-21.9089023002
30
0.0
11
13.0
21
-22.803508502
31
0.0
0
LINE
5
561
100
AcDbEntity
100
AcDbLine
8
2
62
256
370
-1
6
ByLayer
10
13.0
20
-22.803508502
30
0.0
11
14.0
21
-23.6643191324
31
0.0
0
LINE
5
562
100
AcDbEntity
100
AcDbLine
8
2
62
256
370
-1
6
ByLayer
10
14.0
20
-23.6643191324
30
0.0
11
15.0
21
-24.4948974278
31
0.0
0
LINE
5
563
100
AcDbEntity
100
AcDbLine
8
2
62
256
370
-1
6
ByLayer
10
15.0
20
-24.4948974278
30
0.0
11
16.0
21
-25.2982212813
31
0.0
0
LINE
5
564
100
AcDbEntity
100
AcDbLine
8
2
62
256
370
-1
6
ByLayer
10
16.0
20
-25.2982212813
30
0.0
11
17.0
21
-26.0768096208
31
0.0
0
LINE
5
565
100
AcDbEntity
100
AcDbLine
8
2
62
256
370
-1
6
ByLayer
10
17.0
20
-26.0768096208
30
0.0
11
18.0
21
-26.83281573
31
0.0
0
LINE
5
566
100
AcDbEntity
100
AcDbLine
8
2
62
256
370
-1
6
ByLayer
10
18.0
20
-26.83281573
30
0.0
11
19.0
21
-27.5680975042
31
0.0
0
LINE
5
567
100
AcDbEntity
100
AcDbLine
8
2
62
256
370
-1
6
ByLayer
10
19.0
20
-27.5680975042
30
0.0
11
20.0
21
-28.2842712475
31
0.0
0
LINE
5
568
100
AcDbEntity
100
AcDbLine
8
2
62
256
370
-1
6
ByLayer
10
20.0
20
-28.2842712475
30
0.0
11
21.0
21
-28.9827534924
31
0.0
0
LINE
5
569
100
AcDbEntity
100
AcDbLine
8
2
62
256
370
-1
6
ByLayer
10
21.0
20
-28.9827534924
30
0.0
11
22.0
21
-29.6647939484
31
0.0
0
LINE
5
570
100
AcDbEntity
100
AcDbLine
8
2
62
256
370
-1
6
ByLayer
10
22.0
20
-29.6647939484
30
0.0
11
23.0
21
-30.3315017762
31
0.0
0
LINE
5
571
100
AcDbEntity
100
AcDbLine
8
2
62
256
370
-1
6
ByLayer
10
23.0
20
-30.3315017762
30
0.0
11
24.0
21
-30.9838667697
31
0.0
0
LINE
5
572
100
AcDbEntity
100
AcDbLine
8
2
62
256
370
-1
6
ByLayer
10
24.0
20
-30.9838667697
30
0.0
11
25.0
21
-31.6227766017
31
0.0
0
LINE
5
573
100
AcDbEntity
100
AcDbLine
8
2
62
256
370
-1
6
ByLayer
10
25.0
20
-31.6227766017
30
0.0
11
26.0
21
-32.2490309932
31
0.0
0
LINE
5
574
100
AcDbEntity
100
AcDbLine
8
2
62
256
370
-1
6
ByLayer
10
26.0
20
-32.2490309932
30
0.0
11
27.0
21
-32.8633534503
31
0.0
0
LINE
5
575
100
AcDbEntity
100
AcDbLine
8
2
62
256
370
-1
6
ByLayer
10
27.0
20
-32.8633534503
30
0.0
11
28.0
21
-33.4664010614
31
0.0
0
LINE
5
576
100
AcDbEntity
100
AcDbLine
8
2
62
256
370
-1
6
ByLayer
10
28.0
20
-33.4664010614
30
0.0
11
29.0
21
-34.0587727319
31
0.0
0
LINE
5
577
100
AcDbEntity
100
AcDbLine
8
2
62
256
370
-1
6
ByLayer
10
29.0
20
-34.0587727319
30
0.0
11
30.0
21
-34.6410161514
31
0.0
0
LINE
5
578
100
AcDbEntity
100
AcDbLine
8
2
62
256
370
-1
6
ByLayer
10
30.0
20
-34.6410161514
30
0.0
11
31.0
21
-35.2136337233
31
0.0
0
LINE
5
579
100
AcDbEntity
100
AcDbLine
8
2
62
256
370
-1
6
ByLayer
10
31.0
20
-35.2136337233
30
0.0
11
32.0
21
-35.77708764
31
0.0
0
LINE
5
580
100
AcDbEntity
100
AcDbLine
8
2
62
256
370
-1
6
ByLayer
10
32.0
20
-35.77708764
30
0.0
11
33.0
21
-36.3318042492
31
0.0
0
LINE
5
581
100
AcDbEntity
100
AcDbLine
8
2
62
256
370
-1
6
ByLayer
10
33.0
20
-36.3318042492
30
0.0
11
34.0
21
-36.8781778292
31
0.0
0
LINE
5
582
100
AcDbEntity
100
AcDbLine
8
2
62
256
370
-1
6
ByLayer
10
34.0
20
-36.8781778292
30
0.0
11
35.0
21
-37.4165738677
31
0.0
0
LINE
5
583
100
AcDbEntity
100
AcDbLine
8
2
62
256
370
-1
6
ByLayer
10
35.0
20
-37.4165738677
30
0.0
11
36.0
21
-37.947331922
31
0.0
0
LINE
5
584
100
AcDbEntity
100
AcDbLine
8
2
62
256
370
-1
6
ByLayer
10
36.0
20
-37.947331922
30
0.0
11
37.0
21
-38.4707681233
31
0.0
0
LINE
5
585
100
AcDbEntity
100
AcDbLine
8
2
62
256
370
-1
6
ByLayer
10
37.0
20
-38.4707681233
30
0.0
11
38.0
21
-38.9871773792
31
0.0
0
LINE
5
586
100
AcDbEntity
100
AcDbLine
8
2
62
256
370
-1
6
ByLayer
10
38.0
20
-38.9871773792
30
0.0
11
39.0
21
-39.4968353163
31
0.0
0
LINE
5
587
100
AcDbEntity
100
AcDbLine
8
2
62
256
370
-1
6
ByLayer
10
39.0
20
-39.4968353163
30
0.0
11
40.0
21
-40.0
31
0.0
0
LINE
5
588
100
AcDbEntity
100
AcDbLine
8
2
62
256
370
-1
6
ByLayer
10
40.0
20
-40.0
30
0.0
11
41.0
21
-40.4969134626
31
0.0
0
LINE
5
589
100
AcDbEntity
100
AcDbLine
8
2
62
256
370
-1
6
ByLayer
10
41.0
20
-40.4969134626
30
0.0
11
42.0
21
-40.9878030638
31
0.0
0
LINE
5
590
100
AcDbEntity
100
AcDbLine
8
2
62
256
370
-1
6
ByLayer
10
42.0
20
-40.9878030638
30
0.0
11
43.0
21
-41.4728827067
31
0.0
0
LINE
5
591
100
AcDbEntity
100
AcDbLine
8
2
62
256
370
-1
6
ByLayer
10
43.0
20
-41.4728827067
30
0.0
11
44.0
21
-41.9523539268
31
0.0
0
LINE
5
592
100
AcDbEntity
100
AcDbLine
8
2
62
256
370
-1
6
ByLayer
10
44.0
20
-41.9523539268
30
0.0
11
45.0
21
-42.4264068712
31
0.0
0
LINE
5
593
100
AcDbEntity
100
AcDbLine
8
2
62
256
370
-1
6
ByLayer
10
45.0
20
-42.4264068712
30
0.0
11
46.0
21
-42.8952211791
31
0.0
0
LINE
5
594
100
AcDbEntity
100
AcDbLine
8
2
62
256
370
-1
6
ByLayer
10
46.0
20
-42.8952211791
30
0.0
11
47.0
21
-43.3589667774
31
0.0
0
LINE
5
595
100
AcDbEntity
100
AcDbLine
8
2
62
256
370
-1
6
ByLayer
10
47.0
20
-43.3589667774
30
0.0
11
48.0
21
-43.8178046004
31
0.0
0
LINE
5
596
100
AcDbEntity
100
AcDbLine
8
2
62
256
370
-1
6
ByLayer
10
48.0
20
-43.8178046004
30
0.0
11
49.0
21
-44.2718872424
31
0.0
0
LINE
5
597
100
AcDbEntity
100
AcDbLine
8
2
62
256
370
-1
6
ByLayer
10
49.0
20
-44.2718872424
30
0.0
11
50.0
21
-44.72135955
31
0.0
0
LINE
5
598
100
AcDbEntity
100
AcDbLine
8
2
62
256
370
-1
6
ByLayer
10
50.0
20
-44.72135955
30
0.0
11
51.0
21
-45.1663591625
31
0.0
0
LINE
5
599
100
AcDbEntity
100
AcDbLine
8
2
62
256
370
-1
6
ByLayer
10
51.0
20
-45.1663591625
30
0.0
11
52.0
21
-45.607017004
31
0.0
0
LINE
5
600
100
AcDbEntity
100
AcDbLine
8
2
62
256
370
-1
6
ByLayer
10
52.0
20
-45.607017004
30
0.0
11
53.0
21
-46.0434577329
31
0.0
0
LINE
5
601
100
AcDbEntity
100
AcDbLine
8
2
62
256
370
-1
6
ByLayer
10
53.0
20
-46.0434577329
30
0.0
11
54.0
21
-46.4758001545
31
0.0
0
LINE
5
602
100
AcDbEntity
100
AcDbLine
8
2
62
256
370
-1
6
ByLayer
10
54.0
20
-46.4758001545
30
0.0
11
55.0
21
-46.9041575982
31
0.0
0
LINE
5
603
100
AcDbEntity
100
AcDbLine
8
2
62
256
370
-1
6
ByLayer
10
55.0
20
-46.9041575982
30
0.0
11
56.0
21
-47.3286382648
31
0.0
0
LINE
5
604
100
AcDbEntity
100
AcDbLine
8
2
62
256
370
-1
6
ByLayer
10
56.0
20
-47.3286382648
30
0.0
11
57.0
21
-47.7493455453
31
0.0
0
LINE
5
605
100
AcDbEntity
100
AcDbLine
8
2
62
256
370
-1
6
ByLayer
10
57.0
20
-47.7493455453
30
0.0
11
58.0
21
-48.1663783152
31
0.0
0
LINE
5
606
100
AcDbEntity
100
AcDbLine
8
2
62
256
370
-1
6
ByLayer
10
58.0
20
-48.1663783152
30
0.0
11
59.0
21
-48.579831206
31
0.0
0
LINE
5
607
100
AcDbEntity
100
AcDbLine
8
2
62
256
370
-1
6
ByLayer
10
59.0
20
-48.579831206
30
0.0
11
60.0
21
-48.9897948557
31
0.0
0
LINE
5
608
100
AcDbEntity
100
AcDbLine
8
2
62
256
370
-1
6
ByLayer
10
60.0
20
-48.9897948557
30
0.0
11
61.0
21
-49.3963561409
31
0.0
0
LINE
5
609
100
AcDbEntity
100
AcDbLine
8
2
62
256
370
-1
6
ByLayer
10
61.0
20
-49.3963561409
30
0.0
11
62.0
21
-49.799598392
31
0.0
0
LINE
5
610
100
AcDbEntity
100
AcDbLine
8
2
62
256
370
-1
6
ByLayer
10
62.0
20
-49.799598392
30
0.0
11
63.0
21
-50.199601592
31
0.0
0
LINE
5
611
100
AcDbEntity
100
AcDbLine
8
2
62
256
370
-1
6
ByLayer
10
63.0
20
-50.199601592
30
0.0
11
64.0
21
-50.5964425627
31
0.0
0
LINE
5
612
100
AcDbEntity
100
AcDbLine
8
2
62
256
370
-1
6
ByLayer
10
64.0
20
-50.5964425627
30
0.0
11
65.0
21
-50.9901951359
31
0.0
0
LINE
5
613
100
AcDbEntity
100
AcDbLine
8
2
62
256
370
-1
6
ByLayer
10
65.0
20
-50.9901951359
30
0.0
11
66.0
21
-51.3809303147
31
0.0
0
LINE
5
614
100
AcDbEntity
100
AcDbLine
8
2
62
256
370
-1
6
ByLayer
10
66.0
20
-51.3809303147
30
0.0
11
67.0
21
-51.7687164222
31
0.0
0
LINE
5
615
100
AcDbEntity
100
AcDbLine
8
2
62
256
370
-1
6
ByLayer
10
67.0
20
-51.7687164222
30
0.0
11
68.0
21
-52.1536192416
31
0.0
0
LINE
5
616
100
AcDbEntity
100
AcDbLine
8
2
62
256
370
-1
6
ByLayer
10
68.0
20
-52.1536192416
30
0.0
11
69.0
21
-52.5357021463
31
0.0
0
LINE
5
617
100
AcDbEntity
100
AcDbLine
8
2
62
256
370
-1
6
ByLayer
10
69.0
20
-52.5357021463
30
0.0
11
70.0
21
-52.9150262213
31
0.0
0
LINE
5
618
100
AcDbEntity
100
AcDbLine
8
2
62
256
370
-1
6
ByLayer
10
70.0
20
-52.9150262213
30
0.0
11
71.0
21
-53.2916503779
31
0.0
0
LINE
5
619
100
AcDbEntity
100
AcDbLine
8
2
62
256
370
-1
6
ByLayer
10
71.0
20
-53.2916503779
30
0.0
11
72.0
21
-53.66563146
31
0.0
0
LINE
5
620
100
AcDbEntity
100
AcDbLine
8
2
62
256
370
-1
6
ByLayer
10
72.0
20
-53.66563146
30
0.0
11
73.0
21
-54.0370243444
31
0.0
0
LINE
5
621
100
AcDbEntity
100
AcDbLine
8
2
62
256
370
-1
6
ByLayer
10
73.0
20
-54.0370243444
30
0.0
11
74.0
21
-54.4058820349
31
0.0
0
LINE
5
622
100
AcDbEntity
100
AcDbLine
8
2
62
256
370
-1
6
ByLayer
10
74.0
20
-54.4058820349
30
0.0
11
75.0
21
-54.7722557505
31
0.0
0
LINE
5
623
100
AcDbEntity
100
AcDbLine
8
2
62
256
370
-1
6
ByLayer
10
75.0
20
-54.7722557505
30
0.0
11
76.0
21
-55.1361950084
31
0.0
0
LINE
5
624
100
AcDbEntity
100
AcDbLine
8
2
62
256
370
-1
6
ByLayer
10
76.0
20
-55.1361950084
30
0.0
11
77.0
21
-55.497747702
31
0.0
0
LINE
5
625
100
AcDbEntity
100
AcDbLine
8
2
62
256
370
-1
6
ByLayer
10
77.0
20
-55.497747702
30
0.0
11
78.0
21
-55.8569601751
31
0.0
0
LINE
5
626
100
AcDbEntity
100
AcDbLine
8
2
62
256
370
-1
6
ByLayer
10
78.0
20
-55.8569601751
30
0.0
11
79.0
21
-56.2138772902
31
0.0
0
LINE
5
627
100
AcDbEntity
100
AcDbLine
8
2
62
256
370
-1
6
ByLayer
10
79.0
20
-56.2138772902
30
0.0
11
80.0
21
-56.5685424949
31
0.0
0
LINE
5
628
100
AcDbEntity
100
AcDbLine
8
2
62
256
370
-1
6
ByLayer
10
80.0
20
-56.5685424949
30
0.0
11
81.0
21
-56.920997883
31
0.0
0
LINE
5
629
100
AcDbEntity
100
AcDbLine
8
2
62
256
370
-1
6
ByLayer
10
81.0
20
-56.920997883
30
0.0
11
82.0
21
-57.2712842531
31
0.0
0
LINE
5
630
100
AcDbEntity
100
AcDbLine
8
2
62
256
370
-1
6
ByLayer
10
82.0
20
-57.2712842531
30
0.0
11
83.0
21
-57.6194411636
31
0.0
0
LINE
5
631
100
AcDbEntity
100
AcDbLine
8
2
62
256
370
-1
6
ByLayer
10
83.0
20
-57.6194411636
30
0.0
11
84.0
21
-57.9655069848
31
0.0
0
LINE
5
632
100
AcDbEntity
100
AcDbLine
8
2
62
256
370
-1
6
ByLayer
10
84.0
20
-57.9655069848
30
0.0
11
85.0
21
-58.3095189485
31
0.0
0
LINE
5
633
100
AcDbEntity
100
AcDbLine
8
2
62
256
370
-1
6
ByLayer
10
85.0
20
-58.3095189485
30
0.0
11
86.0
21
-58.6515131945
31
0.0
0
LINE
5
634
100
AcDbEntity
100
AcDbLine
8
2
62
256
370
-1
6
ByLayer
10
86.0
20
-58.6515131945
30
0.0
11
87.0
21
-58.991524815
31
0.0
0
LINE
5
635
100
AcDbEntity
100
AcDbLine
8
2
62
256
370
-1
6
ByLayer
10
87.0
20
-58.991524815
30
0.0
11
88.0
21
-59.3295878968
31
0.0
0
LINE
5
636
100
AcDbEntity
100
AcDbLine
8
2
62
256
370
-1
6
ByLayer
10
88.0
20
-59.3295878968
30
0.0
11
89.0
21
-59.6657355607
31
0.0
0
LINE
5
637
100
AcDbEntity
100
AcDbLine
8
2
62
256
370
-1
6
ByLayer
10
89.0
20
-59.6657355607
30
0.0
11
90.0
21
-60.0
31
0.0
0
LINE
5
638
100
AcDbEntity
100
AcDbLine
8
2
62
256
370
-1
6
ByLayer
10
90.0
20
-60.0
30
0.0
11
91.0
21
-60.332412516
31
0.0
0
LINE
5
639
100
AcDbEntity
100
AcDbLine
8
2
62
256
370
-1
6
ByLayer
10
91.0
20
-60.332412516
30
0.0
11
92.0
21
-60.6630035524
31
0.0
0
LINE
5
640
100
AcDbEntity
100
AcDbLine
8
2
62
256
370
-1
6
ByLayer
10
92.0
20
-60.6630035524
30
0.0
11
93.0
21
-60.9918027279
31
0.0
0
LINE
5
641
100
AcDbEntity
100
AcDbLine
8
2
62
256
370
-1
6
ByLayer
10
93.0
20
-60.9918027279
30
0.0
11
94.0
21
-61.318838867
31
0.0
0
LINE
5
642
100
AcDbEntity
100
AcDbLine
8
2
62
256
370
-1
6
ByLayer
10
94.0
20
-61.318838867
30
0.0
11
95.0
21
-61.6441400297
31
0.0
0
LINE
5
643
100
AcDbEntity
100
AcDbLine
8
2
62
256
370
-1
6
ByLayer
10
95.0
20
-61.6441400297
30
0.0
11
96.0
21
-61.9677335393
31
0.0
0
LINE
5
644
100
AcDbEntity
100
AcDbLine
8
2
62
256
370
-1
6
ByLayer
10
96.0
20
-61.9677335393
30
0.0
11
97.0
21
-62.2896460096
31
0.0
0
LINE
5
645
100
AcDbEntity
100
AcDbLine
8
2
62
256
370
-1
6
ByLayer
10
97.0
20
-62.2896460096
30
0.0
11
98.0
21
-62.60990337
31
0.0
0
LINE
5
646
100
AcDbEntity
100
AcDbLine
8
2
62
256
370
-1
6
ByLayer
10
98.0
20
-62.60990337
30
0.0
11
99.0
21
-62.9285308902
31
0.0
0
LINE
5
647
100
AcDbEntity
100
AcDbLine
8
2
62
256
370
-1
6
ByLayer
10
99.0
20
-62.9285308902
30
0.0
11
100.0
21
-63.2455532034
31
0.0
0
LINE
5
648
100
AcDbEntity
100
AcDbLine
8
2
62
256
370
-1
6
ByLayer
10
100.0
20
-63.2455532034
30
0.0
11
101.0
21
-63.5609943283
31
0.0
0
LINE
5
649
100
AcDbEntity
100
AcDbLine
8
2
62
256
370
-1
6
ByLayer
10
101.0
20
-63.5609943283
30
0.0
11
102.0
21
-63.8748776907
31
0.0
0
LINE
5
650
100
AcDbEntity
100
AcDbLine
8
2
62
256
370
-1
6
ByLayer
10
102.0
20
-63.8748776907
30
0.0
11
103.0
21
-64.1872261435
31
0.0
0
LINE
5
651
100
AcDbEntity
100
AcDbLine
8
2
62
256
370
-1
6
ByLayer
10
103.0
20
-64.1872261435
30
0.0
11
104.0
21
-64.4980619864
31
0.0
0
LINE
5
652
100
AcDbEntity
100
AcDbLine
8
2
62
256
370
-1
6
ByLayer
10
104.0
20
-64.4980619864
30
0.0
11
105.0
21
-64.8074069841
31
0.0
0
LINE
5
653
100
AcDbEntity
100
AcDbLine
8
2
62
256
370
-1
6
ByLayer
10
105.0
20
-64.8074069841
30
0.0
11
106.0
21
-65.1152823844
31
0.0
0
LINE
5
654
100
AcDbEntity
100
AcDbLine
8
2
62
256
370
-1
6
ByLayer
10
106.0
20
-65.1152823844
30
0.0
11
107.0
21
-65.4217089352
31
0.0
0
LINE
5
655
100
AcDbEntity
100
AcDbLine
8
2
62
256
370
-1
6
ByLayer
10
107.0
20
-65.4217089352
30
0.0
11
108.0
21
-65.7267069006
31
0.0
0
LINE
5
656
100
AcDbEntity
100
AcDbLine
8
2
62
256
370
-1
6
ByLayer
10
108.0
20
-65.7267069006
30
0.0
11
109.0
21
-66.0302960769
31
0.0
0
LINE
5
657
100
AcDbEntity
100
AcDbLine
8
2
62
256
370
-1
6
ByLayer
10
109.0
20
-66.0302960769
30
0.0
11
110.0
21
-66.3324958071
31
0.0
0
LINE
5
658
100
AcDbEntity
100
AcDbLine
8
2
62
256
370
-1
6
ByLayer
10
110.0
20
-66.3324958071
30
0.0
11
111.0
21
-66.6333249958
31
0.0
0
LINE
5
659
100
AcDbEntity
100
AcDbLine
8
2
62
256
370
-1
6
ByLayer
10
111.0
20
-66.6333249958
30
0.0
11
112.0
21
-66.9328021227
31
0.0
0
LINE
5
660
100
AcDbEntity
100
AcDbLine
8
2
62
256
370
-1
6
ByLayer
10
112.0
20
-66.9328021227
30
0.0
11
113.0
21
-67.2309452559
31
0.0
0
LINE
5
661
100
AcDbEntity
100
AcDbLine
8
2
62
256
370
-1
6
ByLayer
10
113.0
20
-67.2309452559
30
0.0
11
114.0
21
-67.5277720645
31
0.0
0
LINE
5
662
100
AcDbEntity
100
AcDbLine
8
2
62
256
370
-1
6
ByLayer
10
114.0
20
-67.5277720645
30
0.0
11
115.0
21
-67.8232998313
31
0.0
0
LINE
5
663
100
AcDbEntity
100
AcDbLine
8
2
62
256
370
-1
6
ByLayer
10
115.0
20
-67.8232998313
30
0.0
11
116.0
21
-68.1175454637
31
0.0
0
LINE
5
664
100
AcDbEntity
100
AcDbLine
8
2
62
256
370
-1
6
ByLayer
10
116.0
20
-68.1175454637
30
0.0
11
117.0
21
-68.4105255059
31
0.0
0
LINE
5
665
100
AcDbEntity
100
AcDbLine
8
2
62
256
370
-1
6
ByLayer
10
117.0
20
-68.4105255059
30
0.0
11
118.0
21
-68.7022561493
31
0.0
0
LINE
5
666
100
AcDbEntity
100
AcDbLine
8
2
62
256
370
-1
6
ByLayer
10
118.0
20
-68.7022561493
30
0.0
11
119.0
21
-68.9927532426
31
0.0
0
LINE
5
667
100
AcDbEntity
100
AcDbLine
8
2
62
256
370
-1
6
ByLayer
10
119.0
20
-68.9927532426
30
0.0
11
120.0
21
-69.2820323028
31
0.0
0
LINE
5
668
100
AcDbEntity
100
AcDbLine
8
2
62
256
370
-1
6
ByLayer
10
120.0
20
-69.2820323028
30
0.0
11
121.0
21
-69.5701085237
31
0.0
0
LINE
5
669
100
AcDbEntity
100
AcDbLine
8
2
62
256
370
-1
6
ByLayer
10
121.0
20
-69.5701085237
30
0.0
11
122.0
21
-69.8569967863
31
0.0
0
LINE
5
670
100
AcDbEntity
100
AcDbLine
8
2
62
256
370
-1
6
ByLayer
10
122.0
20
-69.8569967863
30
0.0
11
123.0
21
-70.142711667
31
0.0
0
LINE
5
671
100
AcDbEntity
100
AcDbLine
8
2
62
256
370
-1
6
ByLayer
10
123.0
20
-70.142711667
30
0.0
11
124.0
21
-70.4272674466
31
0.0
0
LINE
5
672
100
AcDbEntity
100
AcDbLine
8
2
62
256
370
-1
6
ByLayer
10
124.0
20
-70.4272674466
30
0.0
11
125.0
21
-70.7106781187
31
0.0
0
LINE
5
673
100
AcDbEntity
100
AcDbLine
8
2
62
256
370
-1
6
ByLayer
10
125.0
20
-70.7106781187
30
0.0
11
126.0
21
-70.9929573972
31
0.0
0
LINE
5
674
100
AcDbEntity
100
AcDbLine
8
2
62
256
370
-1
6
ByLayer
10
126.0
20
-70.9929573972
30
0.0
11
127.0
21
-71.2741187248
31
0.0
0
LINE
5
675
100
AcDbEntity
100
AcDbLine
8
2
62
256
370
-1
6
ByLayer
10
127.0
20
-71.2741187248
30
0.0
11
128.0
21
-71.55417528
31
0.0
0
LINE
5
676
100
AcDbEntity
100
AcDbLine
8
2
62
256
370
-1
6
ByLayer
10
128.0
20
-71.55417528
30
0.0
11
129.0
21
-71.8331399843
31
0.0
0
LINE
5
677
100
AcDbEntity
100
AcDbLine
8
2
62
256
370
-1
6
ByLayer
10
129.0
20
-71.8331399843
30
0.0
11
130.0
21
-72.1110255093
31
0.0
0
LINE
5
678
100
AcDbEntity
100
AcDbLine
8
2
62
256
370
-1
6
ByLayer
10
130.0
20
-72.1110255093
30
0.0
11
131.0
21
-72.3878442834
31
0.0
0
LINE
5
679
100
AcDbEntity
100
AcDbLine
8
2
62
256
370
-1
6
ByLayer
10
131.0
20
-72.3878442834
30
0.0
11
132.0
21
-72.6636084983
31
0.0
0
LINE
5
680
100
AcDbEntity
100
AcDbLine
8
2
62
256
370
-1
6
ByLayer
10
132.0
20
-72.6636084983
30
0.0
11
133.0
21
-72.9383301152
31
0.0
0
LINE
5
681
100
AcDbEntity
100
AcDbLine
8
2
62
256
370
-1
6
ByLayer
10
133.0
20
-72.9383301152
30
0.0
11
134.0
21
-73.2120208709
31
0.0
0
LINE
5
682
100
AcDbEntity
100
AcDbLine
8
2
62
256
370
-1
6
ByLayer
10
134.0
20
-73.2120208709
30
0.0
11
135.0
21
-73.4846922835
31
0.0
0
LINE
5
683
100
AcDbEntity
100
AcDbLine
8
2
62
256
370
-1
6
ByLayer
10
135.0
20
-73.4846922835
30
0.0
11
136.0
21
-73.7563556583
31
0.0
0
LINE
5
684
100
AcDbEntity
100
AcDbLine
8
2
62
256
370
-1
6
ByLayer
10
136.0
20
-73.7563556583
30
0.0
11
137.0
21
-74.0270220933
31
0.0
0
LINE
5
685
100
AcDbEntity
100
AcDbLine
8
2
62
256
370
-1
6
ByLayer
10
137.0
20
-74.0270220933
30
0.0
11
138.0
21
-74.296702484
31
0.0
0
LINE
5
686
100
AcDbEntity
100
AcDbLine
8
2
62
256
370
-1
6
ByLayer
10
138.0
20
-74.296702484
30
0.0
11
139.0
21
-74.5654075292
31
0.0
0
LINE
5
687
100
AcDbEntity
100
AcDbLine
8
2
62
256
370
-1
6
ByLayer
10
139.0
20
-74.5654075292
30
0.0
11
140.0
21
-74.8331477355
31
0.0
0
LINE
5
688
100
AcDbEntity
100
AcDbLine
8
2
62
256
370
-1
6
ByLayer
10
140.0
20
-74.8331477355
30
0.0
11
141.0
21
-75.0999334221
31
0.0
0
LINE
5
689
100
AcDbEntity
100
AcDbLine
8
2
62
256
370
-1
6
ByLayer
10
141.0
20
-75.0999334221
30
0.0
11
142.0
21
-75.3657747257
31
0.0
0
LINE
5
690
100
AcDbEntity
100
AcDbLine
8
2
62
256
370
-1
6
ByLayer
10
142.0
20
-75.3657747257
30
0.0
11
143.0
21
-75.6306816048
31
0.0
0
LINE
5
691
100
AcDbEntity
100
AcDbLine
8
2
62
256
370
-1
6
ByLayer
10
143.0
20
-75.6306816048
30
0.0
11
144.0
21
-75.894663844
31
0.0
0
LINE
5
692
100
AcDbEntity
100
AcDbLine
8
2
62
256
370
-1
6
ByLayer
10
144.0
20
-75.894663844
30
0.0
11
145.0
21
-76.1577310586
31
0.0
0
LINE
5
693
100
AcDbEntity
100
AcDbLine
8
2
62
256
370
-1
6
ByLayer
10
145.0
20
-76.1577310586
30
0.0
11
146.0
21
-76.4198926982
31
0.0
0
LINE
5
694
100
AcDbEntity
100
AcDbLine
8
2
62
256
370
-1
6
ByLayer
10
146.0
20
-76.4198926982
30
0.0
11
147.0
21
-76.6811580507
31
0.0
0
LINE
5
695
100
AcDbEntity
100
AcDbLine
8
2
62
256
370
-1
6
ByLayer
10
147.0
20
-76.6811580507
30
0.0
11
148.0
21
-76.9415362467
31
0.0
0
LINE
5
696
100
AcDbEntity
100
AcDbLine
8
2
62
256
370
-1
6
ByLayer
10
148.0
20
-76.9415362467
30
0.0
11
149.0
21
-77.2010362625
31
0.0
0
LINE
5
697
100
AcDbEntity
100
AcDbLine
8
2
62
256
370
-1
6
ByLayer
10
149.0
20
-77.2010362625
30
0.0
11
150.0
21
-77.4596669241
31
0.0
0
LINE
5
698
100
AcDbEntity
100
AcDbLine
8
2
62
256
370
-1
6
ByLayer
10
150.0
20
-77.4596669241
30
0.0
11
151.0
21
-77.7174369109
31
0.0
0
LINE
5
699
100
AcDbEntity
100
AcDbLine
8
2
62
256
370
-1
6
ByLayer
10
151.0
20
-77.7174369109
30
0.0
11
152.0
21
-77.9743547585
31
0.0
0
LINE
5
700
100
AcDbEntity
100
AcDbLine
8
2
62
256
370
-1
6
ByLayer
10
152.0
20
-77.9743547585
30
0.0
11
153.0
21
-78.2304288624
31
0.0
0
LINE
5
701
100
AcDbEntity
100
AcDbLine
8
2
62
256
370
-1
6
ByLayer
10
153.0
20
-78.2304288624
30
0.0
11
154.0
21
-78.4856674814
31
0.0
0
LINE
5
702
100
AcDbEntity
100
AcDbLine
8
2
62
256
370
-1
6
ByLayer
10
154.0
20
-78.4856674814
30
0.0
11
155.0
21
-78.7400787401
31
0.0
0
LINE
5
703
100
AcDbEntity
100
AcDbLine
8
2
62
256
370
-1
6
ByLayer
10
155.0
20
-78.7400787401
30
0.0
11
156.0
21
-78.9936706325
31
0.0
0
LINE
5
704
100
AcDbEntity
100
AcDbLine
8
2
62
256
370
-1
6
ByLayer
10
156.0
20
-78.9936706325
30
0.0
11
157.0
21
-79.2464510246
31
0.0
0
LINE
5
705
100
AcDbEntity
100
AcDbLine
8
2
62
256
370
-1
6
ByLayer
10
157.0
20
-79.2464510246
30
0.0
11
158.0
21
-79.4984276574
31
0.0
0
LINE
5
706
100
AcDbEntity
100
AcDbLine
8
2
62
256
370
-1
6
ByLayer
10
158.0
20
-79.4984276574
30
0.0
11
159.0
21
-79.7496081495
31
0.0
0
LINE
5
707
100
AcDbEntity
100
AcDbLine
8
2
62
256
370
-1
6
ByLayer
10
159.0
20
-79.7496081495
30
0.0
11
160.0
21
-80.0
31
0.0
0
LINE
5
708
100
AcDbEntity
100
AcDbLine
8
2
62
256
370
-1
6
ByLayer
10
160.0
20
-80.0
30
0.0
11
161.0
21
-80.249610591
31
0.0
0
LINE
5
709
100
AcDbEntity
100
AcDbLine
8
2
62
256
370
-1
6
ByLayer
10
161.0
20
-80.249610591
30
0.0
11
162.0
21
-80.49844719
31
0.0
0
LINE
5
710
100
AcDbEntity
100
AcDbLine
8
2
62
256
370
-1
6
ByLayer
10
162.0
20
-80.49844719
30
0.0
11
163.0
21
-80.7465169527
31
0.0
0
LINE
5
711
100
AcDbEntity
100
AcDbLine
8
2
62
256
370
-1
6
ByLayer
10
163.0
20
-80.7465169527
30
0.0
11
164.0
21
-80.9938269253
31
0.0
0
LINE
5
712
100
AcDbEntity
100
AcDbLine
8
2
62
256
370
-1
6
ByLayer
10
164.0
20
-80.9938269253
30
0.0
11
165.0
21
-81.2403840464
31
0.0
0
LINE
5
713
100
AcDbEntity
100
AcDbLine
8
2
62
256
370
-1
6
ByLayer
10
165.0
20
-81.2403840464
30
0.0
11
166.0
21
-81.4861951499
31
0.0
0
LINE
5
714
100
AcDbEntity
100
AcDbLine
8
2
62
256
370
-1
6
ByLayer
10
166.0
20
-81.4861951499
30
0.0
11
167.0
21
-81.7312669668
31
0.0
0
LINE
5
715
100
AcDbEntity
100
AcDbLine
8
2
62
256
370
-1
6
ByLayer
10
167.0
20
-81.7312669668
30
0.0
11
168.0
21
-81.9756061277
31
0.0
0
LINE
5
716
100
AcDbEntity
100
AcDbLine
8
2
62
256
370
-1
6
ByLayer
10
168.0
20
-81.9756061277
30
0.0
11
169.0
21
-82.2192191644
31
0.0
0
LINE
5
717
100
AcDbEntity
100
AcDbLine
8
2
62
256
370
-1
6
ByLayer
10
169.0
20
-82.2192191644
30
0.0
11
170.0
21
-82.4621125124
31
0.0
0
LINE
5
718
100
AcDbEntity
100
AcDbLine
8
2
62
256
370
-1
6
ByLayer
10
170.0
20
-82.4621125124
30
0.0
11
171.0
21
-82.7042925125
31
0.0
0
LINE
5
719
100
AcDbEntity
100
AcDbLine
8
2
62
256
370
-1
6
ByLayer
10
171.0
20
-82.7042925125
30
0.0
11
172.0
21
-82.9457654133
31
0.0
0
LINE
5
720
100
AcDbEntity
100
AcDbLine
8
2
62
256
370
-1
6
ByLayer
10
172.0
20
-82.9457654133
30
0.0
11
173.0
21
-83.1865373723
31
0.0
0
LINE
5
721
100
AcDbEntity
100
AcDbLine
8
2
62
256
370
-1
6
ByLayer
10
173.0
20
-83.1865373723
30
0.0
11
174.0
21
-83.4266144585
31
0.0
0
LINE
5
722
100
AcDbEntity
100
AcDbLine
8
2
62
256
370
-1
6
ByLayer
10
174.0
20
-83.4266144585
30
0.0
11
175.0
21
-83.6660026534
31
0.0
0
LINE
5
723
100
AcDbEntity
100
AcDbLine
8
2
62
256
370
-1
6
ByLayer
10
175.0
20
-83.6660026534
30
0.0
11
176.0
21
-83.9047078536
31
0.0
0
LINE
5
724
100
AcDbEntity
100
AcDbLine
8
2
62
256
370
-1
6
ByLayer
10
176.0
20
-83.9047078536
30
0.0
11
177.0
21
-84.1427358719
31
0.0
0
LINE
5
725
100
AcDbEntity
100
AcDbLine
8
2
62
256
370
-1
6
ByLayer
10
177.0
20
-84.1427358719
30
0.0
11
178.0
21
-84.3800924389
31
0.0
0
LINE
5
726
100
AcDbEntity
100
AcDbLine
8
2
62
256
370
-1
6
ByLayer
10
178.0
20
-84.3800924389
30
0.0
11
179.0
21
-84.6167832052
31
0.0
0
LINE
5
727
100
AcDbEntity
100
AcDbLine
8
2
62
256
370
-1
6
ByLayer
10
179.0
20
-84.6167832052
30
0.0
11
180.0
21
-84.8528137424
31
0.0
0
LINE
5
728
100
AcDbEntity
100
AcDbLine
8
2
62
256
370
-1
6
ByLayer
10
180.0
20
-84.8528137424
30
0.0
11
181.0
21
-85.0881895447
31
0.0
0
LINE
5
729
100
AcDbEntity
100
AcDbLine
8
2
62
256
370
-1
6
ByLayer
10
181.0
20
-85.0881895447
30
0.0
11
182.0
21
-85.3229160308
31
0.0
0
LINE
5
730
100
AcDbEntity
100
AcDbLine
8
2
62
256
370
-1
6
ByLayer
10
182.0
20
-85.3229160308
30
0.0
11
183.0
21
-85.5569985448
31
0.0
0
LINE
5
731
100
AcDbEntity
100
AcDbLine
8
2
62
256
370
-1
6
ByLayer
10
183.0
20
-85.5569985448
30
0.0
11
184.0
21
-85.7904423581
31
0.0
0
LINE
5
732
100
AcDbEntity
100
AcDbLine
8
2
62
256
370
-1
6
ByLayer
10
184.0
20
-85.7904423581
30
0.0
11
185.0
21
-86.0232526704
31
0.0
0
LINE
5
733
100
AcDbEntity
100
AcDbLine
8
2
62
256
370
-1
6
ByLayer
10
185.0
20
-86.0232526704
30
0.0
11
186.0
21
-86.2554346114
31
0.0
0
LINE
5
734
100
AcDbEntity
100
AcDbLine
8
2
62
256
370
-1
6
ByLayer
10
186.0
20
-86.2554346114
30
0.0
11
187.0
21
-86.4869932418
31
0.0
0
LINE
5
735
100
AcDbEntity
100
AcDbLine
8
2
62
256
370
-1
6
ByLayer
10
187.0
20
-86.4869932418
30
0.0
11
188.0
21
-86.7179335547
31
0.0
0
LINE
5
736
100
AcDbEntity
100
AcDbLine
8
2
62
256
370
-1
6
ByLayer
10
188.0
20
-86.7179335547
30
0.0
11
189.0
21
-86.9482604771
31
0.0
0
LINE
5
737
100
AcDbEntity
100
AcDbLine
8
2
62
256
370
-1
6
ByLayer
10
189.0
20
-86.9482604771
30
0.0
11
190.0
21
-87.1779788708
31
0.0
0
LINE
5
738
100
AcDbEntity
100
AcDbLine
8
2
62
256
370
-1
6
ByLayer
10
190.0
20
-87.1779788708
30
0.0
11
191.0
21
-87.4070935336
31
0.0
0
LINE
5
739
100
AcDbEntity
100
AcDbLine
8
2
62
256
370
-1
6
ByLayer
10
191.0
20
-87.4070935336
30
0.0
11
192.0
21
-87.6356092008
31
0.0
0
LINE
5
740
100
AcDbEntity
100
AcDbLine
8
2
62
256
370
-1
6
ByLayer
10
192.0
20
-87.6356092008
30
0.0
11
193.0
21
-87.863530546
31
0.0
0
LINE
5
741
100
AcDbEntity
100
AcDbLine
8
2
62
256
370
-1
6
ByLayer
10
193.0
20
-87.863530546
30
0.0
11
194.0
21
-88.0908621822
31
0.0
0
LINE
5
742
100
AcDbEntity
100
AcDbLine
8
2
62
256
370
-1
6
ByLayer
10
194.0
20
-88.0908621822
30
0.0
11
195.0
21
-88.3176086633
31
0.0
0
LINE
5
743
100
AcDbEntity
100
AcDbLine
8
2
62
256
370
-1
6
ByLayer
10
195.0
20
-88.3176086633
30
0.0
11
196.0
21
-88.5437744847
31
0.0
0
LINE
5
744
100
AcDbEntity
100
AcDbLine
8
2
62
256
370
-1
6
ByLayer
10
196.0
20
-88.5437744847
30
0.0
11
197.0
21
-88.7693640847
31
0.0
0
LINE
5
745
100
AcDbEntity
100
AcDbLine
8
2
62
256
370
-1
6
ByLayer
10
197.0
20
-88.7693640847
30
0.0
11
198.0
21
-88.9943818451
31
0.0
0
LINE
5
746
100
AcDbEntity
100
AcDbLine
8
2
62
256
370
-1
6
ByLayer
10
198.0
20
-88.9943818451
30
0.0
11
199.0
21
-89.2188320928
31
0.0
0
LINE
5
747
100
AcDbEntity
100
AcDbLine
8
2
62
256
370
-1
6
ByLayer
10
199.0
20
-89.2188320928
30
0.0
11
200.0
21
-89.4427191
31
0.0
0
LINE
5
748
100
AcDbEntity
100
AcDbLine
8
2
62
256
370
-1
6
ByLayer
10
200.0
20
-89.4427191
30
0.0
11
201.0
21
-89.6660470858
31
0.0
0
LINE
5
749
100
AcDbEntity
100
AcDbLine
8
2
62
256
370
-1
6
ByLayer
10
201.0
20
-89.6660470858
30
0.0
11
202.0
21
-89.888820217
31
0.0
0
LINE
5
750
100
AcDbEntity
100
AcDbLine
8
2
62
256
370
-1
6
ByLayer
10
202.0
20
-89.888820217
30
0.0
11
203.0
21
-90.1110426086
31
0.0
0
LINE
5
751
100
AcDbEntity
100
AcDbLine
8
2
62
256
370
-1
6
ByLayer
10
203.0
20
-90.1110426086
30
0.0
11
204.0
21
-90.3327183251
31
0.0
0
LINE
5
752
100
AcDbEntity
100
AcDbLine
8
2
62
256
370
-1
6
ByLayer
10
204.0
20
-90.3327183251
30
0.0
11
205.0
21
-90.5538513814
31
0.0
0
LINE
5
753
100
AcDbEntity
100
AcDbLine
8
2
62
256
370
-1
6
ByLayer
10
205.0
20
-90.5538513814
30
0.0
11
206.0
21
-90.7744457433
31
0.0
0
LINE
5
754
100
AcDbEntity
100
AcDbLine
8
2
62
256
370
-1
6
ByLayer
10
206.0
20
-90.7744457433
30
0.0
11
207.0
21
-90.9945053286
31
0.0
0
LINE
5
755
100
AcDbEntity
100
AcDbLine
8
2
62
256
370
-1
6
ByLayer
10
207.0
20
-90.9945053286
30
0.0
11
208.0
21
-91.2140340079
31
0.0
0
LINE
5
756
100
AcDbEntity
100
AcDbLine
8
2
62
256
370
-1
6
ByLayer
10
208.0
20
-91.2140340079
30
0.0
11
209.0
21
-91.4330356053
31
0.0
0
LINE
5
757
100
AcDbEntity
100
AcDbLine
8
2
62
256
370
-1
6
ByLayer
10
209.0
20
-91.4330356053
30
0.0
11
210.0
21
-91.6515138991
31
0.0
0
LINE
5
758
100
AcDbEntity
100
AcDbLine
8
2
62
256
370
-1
6
ByLayer
10
210.0
20
-91.6515138991
30
0.0
11
211.0
21
-91.8694726228
31
0.0
0
LINE
5
759
100
AcDbEntity
100
AcDbLine
8
2
62
256
370
-1
6
ByLayer
10
211.0
20
-91.8694726228
30
0.0
11
212.0
21
-92.0869154658
31
0.0
0
LINE
5
760
100
AcDbEntity
100
AcDbLine
8
2
62
256
370
-1
6
ByLayer
10
212.0
20
-92.0869154658
30
0.0
11
213.0
21
-92.3038460737
31
0.0
0
LINE
5
761
100
AcDbEntity
100
AcDbLine
8
2
62
256
370
-1
6
ByLayer
10
213.0
20
-92.3038460737
30
0.0
11
214.0
21
-92.5202680498
31
0.0
0
LINE
5
762
100
AcDbEntity
100
AcDbLine
8
2
62
256
370
-1
6
ByLayer
10
214.0
20
-92.5202680498
30
0.0
11
215.0
21
-92.736184955
31
0.0
0
LINE
5
763
100
AcDbEntity
100
AcDbLine
8
2
62
256
370
-1
6
ByLayer
10
215.0
20
-92.736184955
30
0.0
11
216.0
21
-92.951600309
31
0.0
0
LINE
5
764
100
AcDbEntity
100
AcDbLine
8
2
62
256
370
-1
6
ByLayer
10
216.0
20
-92.951600309
30
0.0
11
217.0
21
-93.1665175908
31
0.0
0
LINE
5
765
100
AcDbEntity
100
AcDbLine
8
2
62
256
370
-1
6
ByLayer
10
217.0
20
-93.1665175908
30
0.0
11
218.0
21
-93.3809402394
31
0.0
0
LINE
5
766
100
AcDbEntity
100
AcDbLine
8
2
62
256
370
-1
6
ByLayer
10
218.0
20
-93.3809402394
30
0.0
11
219.0
21
-93.5948716544
31
0.0
0
LINE
5
767
100
AcDbEntity
100
AcDbLine
8
2
62
256
370
-1
6
ByLayer
10
219.0
20
-93.5948716544
30
0.0
11
220.0
21
-93.8083151965
31
0.0
0
LINE
5
768
100
AcDbEntity
100
AcDbLine
8
2
62
256
370
-1
6
ByLayer
10
220.0
20
-93.8083151965
30
0.0
11
221.0
21
-94.0212741883
31
0.0
0
LINE
5
769
100
AcDbEntity
100
AcDbLine
8
2
62
256
370
-1
6
ByLayer
10
221.0
20
-94.0212741883
30
0.0
11
222.0
21
-94.2337519151
31
0.0
0
LINE
5
770
100
AcDbEntity
100
AcDbLine
8
2
62
256
370
-1
6
ByLayer
10
222.0
20
-94.2337519151
30
0.0
11
223.0
21
-94.4457516249
31
0.0
0
LINE
5
771
100
AcDbEntity
100
AcDbLine
8
2
62
256
370
-1
6
ByLayer
10
223.0
20
-94.4457516249
30
0.0
11
224.0
21
-94.6572765296
31
0.0
0
LINE
5
772
100
AcDbEntity
100
AcDbLine
8
2
62
256
370
-1
6
ByLayer
10
224.0
20
-94.6572765296
30
0.0
11
225.0
21
-94.8683298051
31
0.0
0
LINE
5
773
100
AcDbEntity
100
AcDbLine
8
2
62
256
370
-1
6
ByLayer
10
225.0
20
-94.8683298051
30
0.0
11
226.0
21
-95.078914592
31
0.0
0
LINE
5
774
100
AcDbEntity
100
AcDbLine
8
2
62
256
370
-1
6
ByLayer
10
226.0
20
-95.078914592
30
0.0
11
227.0
21
-95.2890339966
31
0.0
0
LINE
5
775
100
AcDbEntity
100
AcDbLine
8
2
62
256
370
-1
6
ByLayer
10
227.0
20
-95.2890339966
30
0.0
11
228.0
21
-95.4986910905
31
0.0
0
LINE
5
776
100
AcDbEntity
100
AcDbLine
8
2
62
256
370
-1
6
ByLayer
10
228.0
20
-95.4986910905
30
0.0
11
229.0
21
-95.707888912
31
0.0
0
LINE
5
777
100
AcDbEntity
100
AcDbLine
8
2
62
256
370
-1
6
ByLayer
10
229.0
20
-95.707888912
30
0.0
11
230.0
21
-95.9166304663
31
0.0
0
LINE
5
778
100
AcDbEntity
100
AcDbLine
8
2
62
256
370
-1
6
ByLayer
10
230.0
20
-95.9166304663
30
0.0
11
231.0
21
-96.1249187256
31
0.0
0
LINE
5
779
100
AcDbEntity
100
AcDbLine
8
2
62
256
370
-1
6
ByLayer
10
231.0
20
-96.1249187256
30
0.0
11
232.0
21
-96.3327566303
31
0.0
0
LINE
5
780
100
AcDbEntity
100
AcDbLine
8
2
62
256
370
-1
6
ByLayer
10
232.0
20
-96.3327566303
30
0.0
11
233.0
21
-96.5401470892
31
0.0
0
LINE
5
781
100
AcDbEntity
100
AcDbLine
8
2
62
256
370
-1
6
ByLayer
10
233.0
20
-96.5401470892
30
0.0
11
234.0
21
-96.7470929796
31
0.0
0
LINE
5
782
100
AcDbEntity
100
AcDbLine
8
2
62
256
370
-1
6
ByLayer
10
234.0
20
-96.7470929796
30
0.0
11
235.0
21
-96.9535971483
31
0.0
0
LINE
5
783
100
AcDbEntity
100
AcDbLine
8
2
62
256
370
-1
6
ByLayer
10
235.0
20
-96.9535971483
30
0.0
11
236.0
21
-97.1596624119
31
0.0
0
LINE
5
784
100
AcDbEntity
100
AcDbLine
8
2
62
256
370
-1
6
ByLayer
10
236.0
20
-97.1596624119
30
0.0
11
237.0
21
-97.3652915571
31
0.0
0
LINE
5
785
100
AcDbEntity
100
AcDbLine
8
2
62
256
370
-1
6
ByLayer
10
237.0
20
-97.3652915571
30
0.0
11
238.0
21
-97.5704873412
31
0.0
0
LINE
5
786
100
AcDbEntity
100
AcDbLine
8
2
62
256
370
-1
6
ByLayer
10
238.0
20
-97.5704873412
30
0.0
11
239.0
21
-97.7752524926
31
0.0
0
LINE
5
787
100
AcDbEntity
100
AcDbLine
8
2
62
256
370
-1
6
ByLayer
10
239.0
20
-97.7752524926
30
0.0
11
240.0
21
-97.9795897113
31
0.0
0
LINE
5
788
100
AcDbEntity
100
AcDbLine
8
2
62
256
370
-1
6
ByLayer
10
240.0
20
-97.9795897113
30
0.0
11
241.0
21
-98.1835016691
31
0.0
0
LINE
5
789
100
AcDbEntity
100
AcDbLine
8
2
62
256
370
-1
6
ByLayer
10
241.0
20
-98.1835016691
30
0.0
11
242.0
21
-98.38699101
31
0.0
0
LINE
5
790
100
AcDbEntity
100
AcDbLine
8
2
62
256
370
-1
6
ByLayer
10
242.0
20
-98.38699101
30
0.0
11
243.0
21
-98.5900603509
31
0.0
0
LINE
5
791
100
AcDbEntity
100
AcDbLine
8
2
62
256
370
-1
6
ByLayer
10
243.0
20
-98.5900603509
30
0.0
11
244.0
21
-98.7927122818
31
0.0
0
LINE
5
792
100
AcDbEntity
100
AcDbLine
8
2
62
256
370
-1
6
ByLayer
10
244.0
20
-98.7927122818
30
0.0
11
245.0
21
-98.9949493661
31
0.0
0
LINE
5
793
100
AcDbEntity
100
AcDbLine
8
2
62
256
370
-1
6
ByLayer
10
245.0
20
-98.9949493661
30
0.0
11
246.0
21
-99.1967741411
31
0.0
0
LINE
5
794
100
AcDbEntity
100
AcDbLine
8
2
62
256
370
-1
6
ByLayer
10
246.0
20
-99.1967741411
30
0.0
11
247.0
21
-99.3981891183
31
0.0
0
LINE
5
795
100
AcDbEntity
100
AcDbLine
8
2
62
256
370
-1
6
ByLayer
10
247.0
20
-99.3981891183
30
0.0
11
248.0
21
-99.5991967839
31
0.0
0
LINE
5
796
100
AcDbEntity
100
AcDbLine
8
2
62
256
370
-1
6
ByLayer
10
248.0
20
-99.5991967839
30
0.0
11
249.0
21
-99.799799599
31
0.0
0
LINE
5
797
100
AcDbEntity
100
AcDbLine
8
2
62
256
370
-1
6
ByLayer
10
249.0
20
-99.799799599
30
0.0
11
250.0
21
-100.0
31
0.0
0
LINE
5
798
100
AcDbEntity
100
AcDbLine
8
2
62
256
370
-1
6
ByLayer
10
250.0
20
-100.0
30
0.0
11
251.0
21
-100.199800399
31
0.0
0
LINE
5
799
100
AcDbEntity
100
AcDbLine
8
2
62
256
370
-1
6
ByLayer
10
251.0
20
-100.199800399
30
0.0
11
252.0
21
-100.399203184
31
0.0
0
LINE
5
800
100
AcDbEntity
100
AcDbLine
8
2
62
256
370
-1
6
ByLayer
10
252.0
20
-100.399203184
30
0.0
11
253.0
21
-100.59821072
31
0.0
0
LINE
5
801
100
AcDbEntity
100
AcDbLine
8
2
62
256
370
-1
6
ByLayer
10
253.0
20
-100.59821072
30
0.0
11
254.0
21
-100.796825347
31
0.0
0
LINE
5
802
100
AcDbEntity
100
AcDbLine
8
2
62
256
370
-1
6
ByLayer
10
254.0
20
-100.796825347
30
0.0
11
255.0
21
-100.995049384
31
0.0
0
LINE
5
803
100
AcDbEntity
100
AcDbLine
8
2
62
256
370
-1
6
ByLayer
10
255.0
20
-100.995049384
30
0.0
11
256.0
21
-101.192885125
31
0.0
0
LINE
5
804
100
AcDbEntity
100
AcDbLine
8
2
62
256
370
-1
6
ByLayer
10
256.0
20
-101.192885125
30
0.0
11
257.0
21
-101.390334845
31
0.0
0
LINE
5
805
100
AcDbEntity
100
AcDbLine
8
2
62
256
370
-1
6
ByLayer
10
257.0
20
-101.390334845
30
0.0
11
258.0
21
-101.587400794
31
0.0
0
LINE
5
806
100
AcDbEntity
100
AcDbLine
8
2
62
256
370
-1
6
ByLayer
10
258.0
20
-101.587400794
30
0.0
11
259.0
21
-101.7840852
31
0.0
0
LINE
5
807
100
AcDbEntity
100
AcDbLine
8
2
62
256
370
-1
6
ByLayer
10
259.0
20
-101.7840852
30
0.0
11
260.0
21
-101.980390272
31
0.0
0
LINE
5
808
100
AcDbEntity
100
AcDbLine
8
2
62
256
370
-1
6
ByLayer
10
260.0
20
-101.980390272
30
0.0
11
261.0
21
-102.176318196
31
0.0
0
LINE
5
809
100
AcDbEntity
100
AcDbLine
8
2
62
256
370
-1
6
ByLayer
10
261.0
20
-102.176318196
30
0.0
11
262.0
21
-102.371871137
31
0.0
0
LINE
5
810
100
AcDbEntity
100
AcDbLine
8
2
62
256
370
-1
6
ByLayer
10
262.0
20
-102.371871137
30
0.0
11
263.0
21
-102.56705124
31
0.0
0
LINE
5
811
100
AcDbEntity
100
AcDbLine
8
2
62
256
370
-1
6
ByLayer
10
263.0
20
-102.56705124
30
0.0
11
264.0
21
-102.761860629
31
0.0
0
LINE
5
812
100
AcDbEntity
100
AcDbLine
8
2
62
256
370
-1
6
ByLayer
10
264.0
20
-102.761860629
30
0.0
11
265.0
21
-102.95630141
31
0.0
0
LINE
5
813
100
AcDbEntity
100
AcDbLine
8
2
62
256
370
-1
6
ByLayer
10
265.0
20
-102.95630141
30
0.0
11
266.0
21
-103.150375666
31
0.0
0
LINE
5
814
100
AcDbEntity
100
AcDbLine
8
2
62
256
370
-1
6
ByLayer
10
266.0
20
-103.150375666
30
0.0
11
267.0
21
-103.344085462
31
0.0
0
LINE
5
815
100
AcDbEntity
100
AcDbLine
8
2
62
256
370
-1
6
ByLayer
10
267.0
20
-103.344085462
30
0.0
11
268.0
21
-103.537432844
31
0.0
0
LINE
5
816
100
AcDbEntity
100
AcDbLine
8
2
62
256
370
-1
6
ByLayer
10
268.0
20
-103.537432844
30
0.0
11
269.0
21
-103.730419839
31
0.0
0
LINE
5
817
100
AcDbEntity
100
AcDbLine
8
2
62
256
370
-1
6
ByLayer
10
269.0
20
-103.730419839
30
0.0
11
270.0
21
-103.923048454
31
0.0
0
LINE
5
818
100
AcDbEntity
100
AcDbLine
8
2
62
256
370
-1
6
ByLayer
10
270.0
20
-103.923048454
30
0.0
11
271.0
21
-104.115320679
31
0.0
0
LINE
5
819
100
AcDbEntity
100
AcDbLine
8
2
62
256
370
-1
6
ByLayer
10
271.0
20
-104.115320679
30
0.0
11
272.0
21
-104.307238483
31
0.0
0
LINE
5
820
100
AcDbEntity
100
AcDbLine
8
2
62
256
370
-1
6
ByLayer
10
272.0
20
-104.307238483
30
0.0
11
273.0
21
-104.498803821
31
0.0
0
LINE
5
821
100
AcDbEntity
100
AcDbLine
8
2
62
256
370
-1
6
ByLayer
10
273.0
20
-104.498803821
30
0.0
11
274.0
21
-104.690018626
31
0.0
0
LINE
5
822
100
AcDbEntity
100
AcDbLine
8
2
62
256
370
-1
6
ByLayer
10
274.0
20
-104.690018626
30
0.0
11
275.0
21
-104.880884817
31
0.0
0
LINE
5
823
100
AcDbEntity
100
AcDbLine
8
2
62
256
370
-1
6
ByLayer
10
275.0
20
-104.880884817
30
0.0
11
276.0
21
-105.071404293
31
0.0
0
LINE
5
824
100
AcDbEntity
100
AcDbLine
8
2
62
256
370
-1
6
ByLayer
10
276.0
20
-105.071404293
30
0.0
11
277.0
21
-105.261578936
31
0.0
0
LINE
5
825
100
AcDbEntity
100
AcDbLine
8
2
62
256
370
-1
6
ByLayer
10
277.0
20
-105.261578936
30
0.0
11
278.0
21
-105.451410612
31
0.0
0
LINE
5
826
100
AcDbEntity
100
AcDbLine
8
2
62
256
370
-1
6
ByLayer
10
278.0
20
-105.451410612
30
0.0
11
279.0
21
-105.64090117
31
0.0
0
LINE
5
827
100
AcDbEntity
100
AcDbLine
8
2
62
256
370
-1
6
ByLayer
10
279.0
20
-105.64090117
30
0.0
11
280.0
21
-105.830052443
31
0.0
0
LINE
5
828
100
AcDbEntity
100
AcDbLine
8
2
62
256
370
-1
6
ByLayer
10
280.0
20
-105.830052443
30
0.0
11
281.0
21
-106.018866246
31
0.0
0
LINE
5
829
100
AcDbEntity
100
AcDbLine
8
2
62
256
370
-1
6
ByLayer
10
281.0
20
-106.018866246
30
0.0
11
282.0
21
-106.207344379
31
0.0
0
LINE
5
830
100
AcDbEntity
100
AcDbLine
8
2
62
256
370
-1
6
ByLayer
10
282.0
20
-106.207344379
30
0.0
11
283.0
21
-106.395488626
31
0.0
0
LINE
5
831
100
AcDbEntity
100
AcDbLine
8
2
62
256
370
-1
6
ByLayer
10
283.0
20
-106.395488626
30
0.0
11
284.0
21
-106.583300756
31
0.0
0
LINE
5
832
100
AcDbEntity
100
AcDbLine
8
2
62
256
370
-1
6
ByLayer
10
284.0
20
-106.583300756
30
0.0
11
285.0
21
-106.77078252
31
0.0
0
LINE
5
833
100
AcDbEntity
100
AcDbLine
8
2
62
256
370
-1
6
ByLayer
10
285.0
20
-106.77078252
30
0.0
11
286.0
21
-106.957935657
31
0.0
0
LINE
5
834
100
AcDbEntity
100
AcDbLine
8
2
62
256
370
-1
6
ByLayer
10
286.0
20
-106.957935657
30
0.0
11
287.0
21
-107.144761888
31
0.0
0
LINE
5
835
100
AcDbEntity
100
AcDbLine
8
2
62
256
370
-1
6
ByLayer
10
287.0
20
-107.144761888
30
0.0
11
288.0
21
-107.33126292
31
0.0
0
LINE
5
836
100
AcDbEntity
100
AcDbLine
8
2
62
256
370
-1
6
ByLayer
10
288.0
20
-107.33126292
30
0.0
11
289.0
21
-107.517440446
31
0.0
0
LINE
5
837
100
AcDbEntity
100
AcDbLine
8
2
62
256
370
-1
6
ByLayer
10
289.0
20
-107.517440446
30
0.0
11
290.0
21
-107.703296143
31
0.0
0
LINE
5
838
100
AcDbEntity
100
AcDbLine
8
2
62
256
370
-1
6
ByLayer
10
290.0
20
-107.703296143
30
0.0
11
291.0
21
-107.888831674
31
0.0
0
LINE
5
839
100
AcDbEntity
100
AcDbLine
8
2
62
256
370
-1
6
ByLayer
10
291.0
20
-107.888831674
30
0.0
11
292.0
21
-108.074048689
31
0.0
0
LINE
5
840
100
AcDbEntity
100
AcDbLine
8
2
62
256
370
-1
6
ByLayer
10
292.0
20
-108.074048689
30
0.0
11
293.0
21
-108.258948822
31
0.0
0
LINE
5
841
100
AcDbEntity
100
AcDbLine
8
2
62
256
370
-1
6
ByLayer
10
293.0
20
-108.258948822
30
0.0
11
294.0
21
-108.443533694
31
0.0
0
LINE
5
842
100
AcDbEntity
100
AcDbLine
8
2
62
256
370
-1
6
ByLayer
10
294.0
20
-108.443533694
30
0.0
11
295.0
21
-108.627804912
31
0.0
0
LINE
5
843
100
AcDbEntity
100
AcDbLine
8
2
62
256
370
-1
6
ByLayer
10
295.0
20
-108.627804912
30
0.0
11
296.0
21
-108.81176407
31
0.0
0
LINE
5
844
100
AcDbEntity
100
AcDbLine
8
2
62
256
370
-1
6
ByLayer
10
296.0
20
-108.81176407
30
0.0
11
297.0
21
-108.995412748
31
0.0
0
LINE
5
845
100
AcDbEntity
100
AcDbLine
8
2
62
256
370
-1
6
ByLayer
10
297.0
20
-108.995412748
30
0.0
11
298.0
21
-109.178752512
31
0.0
0
LINE
5
846
100
AcDbEntity
100
AcDbLine
8
2
62
256
370
-1
6
ByLayer
10
298.0
20
-109.178752512
30
0.0
11
299.0
21
-109.361784916
31
0.0
0
LINE
5
847
100
AcDbEntity
100
AcDbLine
8
2
62
256
370
-1
6
ByLayer
10
299.0
20
-109.361784916
30
0.0
11
300.0
21
-109.544511501
31
0.0
0
LINE
5
848
100
AcDbEntity
100
AcDbLine
8
2
62
256
370
-1
6
ByLayer
10
300.0
20
-109.544511501
30
0.0
11
301.0
21
-109.726933795
31
0.0
0
LINE
5
849
100
AcDbEntity
100
AcDbLine
8
2
62
256
370
-1
6
ByLayer
10
301.0
20
-109.726933795
30
0.0
11
302.0
21
-109.909053312
31
0.0
0
LINE
5
850
100
AcDbEntity
100
AcDbLine
8
2
62
256
370
-1
6
ByLayer
10
302.0
20
-109.909053312
30
0.0
11
303.0
21
-110.090871556
31
0.0
0
LINE
5
851
100
AcDbEntity
100
AcDbLine
8
2
62
256
370
-1
6
ByLayer
10
303.0
20
-110.090871556
30
0.0
11
304.0
21
-110.272390017
31
0.0
0
LINE
5
852
100
AcDbEntity
100
AcDbLine
8
2
62
256
370
-1
6
ByLayer
10
304.0
20
-110.272390017
30
0.0
11
305.0
21
-110.453610172
31
0.0
0
LINE
5
853
100
AcDbEntity
100
AcDbLine
8
2
62
256
370
-1
6
ByLayer
10
305.0
20
-110.453610172
30
0.0
11
306.0
21
-110.634533488
31
0.0
0
LINE
5
854
100
AcDbEntity
100
AcDbLine
8
2
62
256
370
-1
6
ByLayer
10
306.0
20
-110.634533488
30
0.0
11
307.0
21
-110.815161418
31
0.0
0
LINE
5
855
100
AcDbEntity
100
AcDbLine
8
2
62
256
370
-1
6
ByLayer
10
307.0
20
-110.815161418
30
0.0
11
308.0
21
-110.995495404
31
0.0
0
LINE
5
856
100
AcDbEntity
100
AcDbLine
8
2
62
256
370
-1
6
ByLayer
10
308.0
20
-110.995495404
30
0.0
11
309.0
21
-111.175536877
31
0.0
0
LINE
5
857
100
AcDbEntity
100
AcDbLine
8
2
62
256
370
-1
6
ByLayer
10
309.0
20
-111.175536877
30
0.0
11
310.0
21
-111.355287257
31
0.0
0
LINE
5
858
100
AcDbEntity
100
AcDbLine
8
2
62
256
370
-1
6
ByLayer
10
310.0
20
-111.355287257
30
0.0
11
311.0
21
-111.534747949
31
0.0
0
LINE
5
859
100
AcDbEntity
100
AcDbLine
8
2
62
256
370
-1
6
ByLayer
10
311.0
20
-111.534747949
30
0.0
11
312.0
21
-111.71392035
31
0.0
0
LINE
5
860
100
AcDbEntity
100
AcDbLine
8
2
62
256
370
-1
6
ByLayer
10
312.0
20
-111.71392035
30
0.0
11
313.0
21
-111.892805846
31
0.0
0
LINE
5
861
100
AcDbEntity
100
AcDbLine
8
2
62
256
370
-1
6
ByLayer
10
313.0
20
-111.892805846
30
0.0
11
314.0
21
-112.071405809
31
0.0
0
LINE
5
862
100
AcDbEntity
100
AcDbLine
8
2
62
256
370
-1
6
ByLayer
10
314.0
20
-112.071405809
30
0.0
11
315.0
21
-112.249721603
31
0.0
0
LINE
5
863
100
AcDbEntity
100
AcDbLine
8
2
62
256
370
-1
6
ByLayer
10
315.0
20
-112.249721603
30
0.0
11
316.0
21
-112.42775458
31
0.0
0
LINE
5
864
100
AcDbEntity
100
AcDbLine
8
2
62
256
370
-1
6
ByLayer
10
316.0
20
-112.42775458
30
0.0
11
317.0
21
-112.605506082
31
0.0
0
LINE
5
865
100
AcDbEntity
100
AcDbLine
8
2
62
256
370
-1
6
ByLayer
10
317.0
20
-112.605506082
30
0.0
11
318.0
21
-112.782977439
31
0.0
0
LINE
5
866
100
AcDbEntity
100
AcDbLine
8
2
62
256
370
-1
6
ByLayer
10
318.0
20
-112.782977439
30
0.0
11
319.0
21
-112.960169972
31
0.0
0
LINE
5
867
100
AcDbEntity
100
AcDbLine
8
2
62
256
370
-1
6
ByLayer
10
319.0
20
-112.960169972
30
0.0
11
320.0
21
-113.13708499
31
0.0
0
LINE
5
868
100
AcDbEntity
100
AcDbLine
8
2
62
256
370
-1
6
ByLayer
10
320.0
20
-113.13708499
30
0.0
11
321.0
21
-113.313723794
31
0.0
0
LINE
5
869
100
AcDbEntity
100
AcDbLine
8
2
62
256
370
-1
6
ByLayer
10
321.0
20
-113.313723794
30
0.0
11
322.0
21
-113.490087673
31
0.0
0
LINE
5
870
100
AcDbEntity
100
AcDbLine
8
2
62
256
370
-1
6
ByLayer
10
322.0
20
-113.490087673
30
0.0
11
323.0
21
-113.666177907
31
0.0
0
LINE
5
871
100
AcDbEntity
100
AcDbLine
8
2
62
256
370
-1
6
ByLayer
10
323.0
20
-113.666177907
30
0.0
11
324.0
21
-113.841995766
31
0.0
0
LINE
5
872
100
AcDbEntity
100
AcDbLine
8
2
62
256
370
-1
6
ByLayer
10
324.0
20
-113.841995766
30
0.0
11
325.0
21
-114.01754251
31
0.0
0
LINE
5
873
100
AcDbEntity
100
AcDbLine
8
2
62
256
370
-1
6
ByLayer
10
325.0
20
-114.01754251
30
0.0
11
326.0
21
-114.192819389
31
0.0
0
LINE
5
874
100
AcDbEntity
100
AcDbLine
8
2
62
256
370
-1
6
ByLayer
10
326.0
20
-114.192819389
30
0.0
11
327.0
21
-114.367827644
31
0.0
0
LINE
5
875
100
AcDbEntity
100
AcDbLine
8
2
62
256
370
-1
6
ByLayer
10
327.0
20
-114.367827644
30
0.0
11
328.0
21
-114.542568506
31
0.0
0
LINE
5
876
100
AcDbEntity
100
AcDbLine
8
2
62
256
370
-1
6
ByLayer
10
328.0
20
-114.542568506
30
0.0
11
329.0
21
-114.717043198
31
0.0
0
LINE
5
877
100
AcDbEntity
100
AcDbLine
8
2
62
256
370
-1
6
ByLayer
10
329.0
20
-114.717043198
30
0.0
11
330.0
21
-114.891252931
31
0.0
0
LINE
5
878
100
AcDbEntity
100
AcDbLine
8
2
62
256
370
-1
6
ByLayer
10
330.0
20
-114.891252931
30
0.0
11
331.0
21
-115.065198909
31
0.0
0
LINE
5
879
100
AcDbEntity
100
AcDbLine
8
2
62
256
370
-1
6
ByLayer
10
331.0
20
-115.065198909
30
0.0
11
332.0
21
-115.238882327
31
0.0
0
LINE
5
880
100
AcDbEntity
100
AcDbLine
8
2
62
256
370
-1
6
ByLayer
10
332.0
20
-115.238882327
30
0.0
11
333.0
21
-115.41230437
31
0.0
0
LINE
5
881
100
AcDbEntity
100
AcDbLine
8
2
62
256
370
-1
6
ByLayer
10
333.0
20
-115.41230437
30
0.0
11
334.0
21
-115.585466214
31
0.0
0
LINE
5
882
100
AcDbEntity
100
AcDbLine
8
2
62
256
370
-1
6
ByLayer
10
334.0
20
-115.585466214
30
0.0
11
335.0
21
-115.758369028
31
0.0
0
LINE
5
883
100
AcDbEntity
100
AcDbLine
8
2
62
256
370
-1
6
ByLayer
10
335.0
20
-115.758369028
30
0.0
11
336.0
21
-115.93101397
31
0.0
0
LINE
5
884
100
AcDbEntity
100
AcDbLine
8
2
62
256
370
-1
6
ByLayer
10
336.0
20
-115.93101397
30
0.0
11
337.0
21
-116.10340219
31
0.0
0
LINE
5
885
100
AcDbEntity
100
AcDbLine
8
2
62
256
370
-1
6
ByLayer
10
337.0
20
-116.10340219
30
0.0
11
338.0
21
-116.27553483
31
0.0
0
LINE
5
886
100
AcDbEntity
100
AcDbLine
8
2
62
256
370
-1
6
ByLayer
10
338.0
20
-116.27553483
30
0.0
11
339.0
21
-116.447413024
31
0.0
0
LINE
5
887
100
AcDbEntity
100
AcDbLine
8
2
62
256
370
-1
6
ByLayer
10
339.0
20
-116.447413024
30
0.0
11
340.0
21
-116.619037897
31
0.0
0
LINE
5
888
100
AcDbEntity
100
AcDbLine
8
2
62
256
370
-1
6
ByLayer
10
340.0
20
-116.619037897
30
0.0
11
341.0
21
-116.790410565
31
0.0
0
LINE
5
889
100
AcDbEntity
100
AcDbLine
8
2
62
256
370
-1
6
ByLayer
10
341.0
20
-116.790410565
30
0.0
11
342.0
21
-116.961532138
31
0.0
0
LINE
5
890
100
AcDbEntity
100
AcDbLine
8
2
62
256
370
-1
6
ByLayer
10
342.0
20
-116.961532138
30
0.0
11
343.0
21
-117.132403715
31
0.0
0
LINE
5
891
100
AcDbEntity
100
AcDbLine
8
2
62
256
370
-1
6
ByLayer
10
343.0
20
-117.132403715
30
0.0
11
344.0
21
-117.303026389
31
0.0
0
LINE
5
892
100
AcDbEntity
100
AcDbLine
8
2
62
256
370
-1
6
ByLayer
10
344.0
20
-117.303026389
30
0.0
11
345.0
21
-117.473401245
31
0.0
0
LINE
5
893
100
AcDbEntity
100
AcDbLine
8
2
62
256
370
-1
6
ByLayer
10
345.0
20
-117.473401245
30
0.0
11
346.0
21
-117.643529359
31
0.0
0
LINE
5
894
100
AcDbEntity
100
AcDbLine
8
2
62
256
370
-1
6
ByLayer
10
346.0
20
-117.643529359
30
0.0
11
347.0
21
-117.8134118
31
0.0
0
LINE
5
895
100
AcDbEntity
100
AcDbLine
8
2
62
256
370
-1
6
ByLayer
10
347.0
20
-117.8134118
30
0.0
11
348.0
21
-117.98304963
31
0.0
0
LINE
5
896
100
AcDbEntity
100
AcDbLine
8
2
62
256
370
-1
6
ByLayer
10
348.0
20
-117.98304963
30
0.0
11
349.0
21
-118.152443902
31
0.0
0
LINE
5
897
100
AcDbEntity
100
AcDbLine
8
2
62
256
370
-1
6
ByLayer
10
349.0
20
-118.152443902
30
0.0
11
350.0
21
-118.321595662
31
0.0
0
LINE
5
898
100
AcDbEntity
100
AcDbLine
8
2
62
256
370
-1
6
ByLayer
10
350.0
20
-118.321595662
30
0.0
11
351.0
21
-118.490505949
31
0.0
0
LINE
5
899
100
AcDbEntity
100
AcDbLine
8
2
62
256
370
-1
6
ByLayer
10
351.0
20
-118.490505949
30
0.0
11
352.0
21
-118.659175794
31
0.0
0
LINE
5
900
100
AcDbEntity
100
AcDbLine
8
2
62
256
370
-1
6
ByLayer
10
352.0
20
-118.659175794
30
0.0
11
353.0
21
-118.82760622
31
0.0
0
LINE
5
901
100
AcDbEntity
100
AcDbLine
8
2
62
256
370
-1
6
ByLayer
10
353.0
20
-118.82760622
30
0.0
11
354.0
21
-118.995798245
31
0.0
0
LINE
5
902
100
AcDbEntity
100
AcDbLine
8
2
62
256
370
-1
6
ByLayer
10
354.0
20
-118.995798245
30
0.0
11
355.0
21
-119.163752878
31
0.0
0
LINE
5
903
100
AcDbEntity
100
AcDbLine
8
2
62
256
370
-1
6
ByLayer
10
355.0
20
-119.163752878
30
0.0
11
356.0
21
-119.331471121
31
0.0
0
LINE
5
904
100
AcDbEntity
100
AcDbLine
8
2
62
256
370
-1
6
ByLayer
10
356.0
20
-119.331471121
30
0.0
11
357.0
21
-119.49895397
31
0.0
0
LINE
5
905
100
AcDbEntity
100
AcDbLine
8
2
62
256
370
-1
6
ByLayer
10
357.0
20
-119.49895397
30
0.0
11
358.0
21
-119.666202413
31
0.0
0
LINE
5
906
100
AcDbEntity
100
AcDbLine
8
2
62
256
370
-1
6
ByLayer
10
358.0
20
-119.666202413
30
0.0
11
359.0
21
-119.833217432
31
0.0
0
LINE
5
907
100
AcDbEntity
100
AcDbLine
8
2
62
256
370
-1
6
ByLayer
10
359.0
20
-119.833217432
30
0.0
11
360.0
21
-120.0
31
0.0
0
LINE
5
908
100
AcDbEntity
100
AcDbLine
8
2
62
256
370
-1
6
ByLayer
10
360.0
20
-120.0
30
0.0
11
361.0
21
-120.166551086
31
0.0
0
LINE
5
909
100
AcDbEntity
100
AcDbLine
8
2
62
256
370
-1
6
ByLayer
10
361.0
20
-120.166551086
30
0.0
11
362.0
21
-120.332871652
31
0.0
0
LINE
5
910
100
AcDbEntity
100
AcDbLine
8
2
62
256
370
-1
6
ByLayer
10
362.0
20
-120.332871652
30
0.0
11
363.0
21
-120.498962651
31
0.0
0
LINE
5
911
100
AcDbEntity
100
AcDbLine
8
2
62
256
370
-1
6
ByLayer
10
363.0
20
-120.498962651
30
0.0
11
364.0
21
-120.664825032
31
0.0
0
LINE
5
912
100
AcDbEntity
100
AcDbLine
8
2
62
256
370
-1
6
ByLayer
10
364.0
20
-120.664825032
30
0.0
11
365.0
21
-120.830459736
31
0.0
0
LINE
5
913
100
AcDbEntity
100
AcDbLine
8
2
62
256
370
-1
6
ByLayer
10
365.0
20
-120.830459736
30
0.0
11
366.0
21
-120.995867698
31
0.0
0
LINE
5
914
100
AcDbEntity
100
AcDbLine
8
2
62
256
370
-1
6
ByLayer
10
366.0
20
-120.995867698
30
0.0
11
367.0
21
-121.161049847
31
0.0
0
LINE
5
915
100
AcDbEntity
100
AcDbLine
8
2
62
256
370
-1
6
ByLayer
10
367.0
20
-121.161049847
30
0.0
11
368.0
21
-121.326007105
31
0.0
0
LINE
5
916
100
AcDbEntity
100
AcDbLine
8
2
62
256
370
-1
6
ByLayer
10
368.0
20
-121.326007105
30
0.0
11
369.0
21
-121.490740388
31
0.0
0
LINE
5
917
100
AcDbEntity
100
AcDbLine
8
2
62
256
370
-1
6
ByLayer
10
369.0
20
-121.490740388
30
0.0
11
370.0
21
-121.655250606
31
0.0
0
LINE
5
918
100
AcDbEntity
100
AcDbLine
8
2
62
256
370
-1
6
ByLayer
10
370.0
20
-121.655250606
30
0.0
11
371.0
21
-121.819538663
31
0.0
0
LINE
5
919
100
AcDbEntity
100
AcDbLine
8
2
62
256
370
-1
6
ByLayer
10
371.0
20
-121.819538663
30
0.0
11
372.0
21
-121.983605456
31
0.0
0
LINE
5
920
100
AcDbEntity
100
AcDbLine
8
2
62
256
370
-1
6
ByLayer
10
372.0
20
-121.983605456
30
0.0
11
373.0
21
-122.147451877
31
0.0
0
LINE
5
921
100
AcDbEntity
100
AcDbLine
8
2
62
256
370
-1
6
ByLayer
10
373.0
20
-122.147451877
30
0.0
11
374.0
21
-122.311078811
31
0.0
0
LINE
5
922
100
AcDbEntity
100
AcDbLine
8
2
62
256
370
-1
6
ByLayer
10
374.0
20
-122.311078811
30
0.0
11
375.0
21
-122.474487139
31
0.0
0
LINE
5
923
100
AcDbEntity
100
AcDbLine
8
2
62
256
370
-1
6
ByLayer
10
375.0
20
-122.474487139
30
0.0
11
376.0
21
-122.637677734
31
0.0
0
LINE
5
924
100
AcDbEntity
100
AcDbLine
8
2
62
256
370
-1
6
ByLayer
10
376.0
20
-122.637677734
30
0.0
11
377.0
21
-122.800651464
31
0.0
0
LINE
5
925
100
AcDbEntity
100
AcDbLine
8
2
62
256
370
-1
6
ByLayer
10
377.0
20
-122.800651464
30
0.0
11
378.0
21
-122.963409192
31
0.0
0
LINE
5
926
100
AcDbEntity
100
AcDbLine
8
2
62
256
370
-1
6
ByLayer
10
378.0
20
-122.963409192
30
0.0
11
379.0
21
-123.125951773
31
0.0
0
LINE
5
927
100
AcDbEntity
100
AcDbLine
8
2
62
256
370
-1
6
ByLayer
10
379.0
20
-123.125951773
30
0.0
11
380.0
21
-123.288280059
31
0.0
0
LINE
5
928
100
AcDbEntity
100
AcDbLine
8
2
62
256
370
-1
6
ByLayer
10
380.0
20
-123.288280059
30
0.0
11
381.0
21
-123.450394896
31
0.0
0
LINE
5
929
100
AcDbEntity
100
AcDbLine
8
2
62
256
370
-1
6
ByLayer
10
381.0
20
-123.450394896
30
0.0
11
382.0
21
-123.612297123
31
0.0
0
LINE
5
930
100
AcDbEntity
100
AcDbLine
8
2
62
256
370
-1
6
ByLayer
10
382.0
20
-123.612297123
30
0.0
11
383.0
21
-123.773987574
31
0.0
0
LINE
5
931
100
AcDbEntity
100
AcDbLine
8
2
62
256
370
-1
6
ByLayer
10
383.0
20
-123.773987574
30
0.0
11
384.0
21
-123.935467079
31
0.0
0
LINE
5
932
100
AcDbEntity
100
AcDbLine
8
2
62
256
370
-1
6
ByLayer
10
384.0
20
-123.935467079
30
0.0
11
385.0
21
-124.09673646
31
0.0
0
LINE
5
933
100
AcDbEntity
100
AcDbLine
8
2
62
256
370
-1
6
ByLayer
10
385.0
20
-124.09673646
30
0.0
11
386.0
21
-124.257796536
31
0.0
0
LINE
5
934
100
AcDbEntity
100
AcDbLine
8
2
62
256
370
-1
6
ByLayer
10
386.0
20
-124.257796536
30
0.0
11
387.0
21
-124.41864812
31
0.0
0
LINE
5
935
100
AcDbEntity
100
AcDbLine
8
2
62
256
370
-1
6
ByLayer
10
387.0
20
-124.41864812
30
0.0
11
388.0
21
-124.579292019
31
0.0
0
LINE
5
936
100
AcDbEntity
100
AcDbLine
8
2
62
256
370
-1
6
ByLayer
10
388.0
20
-124.579292019
30
0.0
11
389.0
21
-124.739729036
31
0.0
0
LINE
5
937
100
AcDbEntity
100
AcDbLine
8
2
62
256
370
-1
6
ByLayer
10
389.0
20
-124.739729036
30
0.0
11
390.0
21
-124.899959968
31
0.0
0
LINE
5
938
100
AcDbEntity
100
AcDbLine
8
2
62
256
370
-1
6
ByLayer
10
390.0
20
-124.899959968
30
0.0
11
391.0
21
-125.059985607
31
0.0
0
LINE
5
939
100
AcDbEntity
100
AcDbLine
8
2
62
256
370
-1
6
ByLayer
10
391.0
20
-125.059985607
30
0.0
11
392.0
21
-125.21980674
31
0.0
0
LINE
5
940
100
AcDbEntity
100
AcDbLine
8
2
62
256
370
-1
6
ByLayer
10
392.0
20
-125.21980674
30
0.0
11
393.0
21
-125.379424149
31
0.0
0
LINE
5
941
100
AcDbEntity
100
AcDbLine
8
2
62
256
370
-1
6
ByLayer
10
393.0
20
-125.379424149
30
0.0
11
394.0
21
-125.538838612
31
0.0
0
LINE
5
942
100
AcDbEntity
100
AcDbLine
8
2
62
256
370
-1
6
ByLayer
10
394.0
20
-125.538838612
30
0.0
11
395.0
21
-125.6980509
31
0.0
0
LINE
5
943
100
AcDbEntity
100
AcDbLine
8
2
62
256
370
-1
6
ByLayer
10
395.0
20
-125.6980509
30
0.0
11
396.0
21
-125.85706178
31
0.0
0
LINE
5
944
100
AcDbEntity
100
AcDbLine
8
2
62
256
370
-1
6
ByLayer
10
396.0
20
-125.85706178
30
0.0
11
397.0
21
-126.015872016
31
0.0
0
LINE
5
945
100
AcDbEntity
100
AcDbLine
8
2
62
256
370
-1
6
ByLayer
10
397.0
20
-126.015872016
30
0.0
11
398.0
21
-126.174482365
31
0.0
0
LINE
5
946
100
AcDbEntity
100
AcDbLine
8
2
62
256
370
-1
6
ByLayer
10
398.0
20
-126.174482365
30
0.0
11
399.0
21
-126.332893579
31
0.0
0
LINE
5
947
100
AcDbEntity
100
AcDbLine
8
2
62
256
370
-1
6
ByLayer
10
399.0
20
-126.332893579
30
0.0
11
400.0
21
-126.491106407
31
0.0
0
LINE
5
948
100
AcDbEntity
100
AcDbLine
8
2
62
256
370
-1
6
ByLayer
10
400.0
20
-126.491106407
30
0.0
11
401.0
21
-126.649121592
31
0.0
0
LINE
5
949
100
AcDbEntity
100
AcDbLine
8
2
62
256
370
-1
6
ByLayer
10
401.0
20
-126.649121592
30
0.0
11
402.0
21
-126.806939873
31
0.0
0
LINE
5
950
100
AcDbEntity
100
AcDbLine
8
2
62
256
370
-1
6
ByLayer
10
402.0
20
-126.806939873
30
0.0
11
403.0
21
-126.964561985
31
0.0
0
LINE
5
951
100
AcDbEntity
100
AcDbLine
8
2
62
256
370
-1
6
ByLayer
10
403.0
20
-126.964561985
30
0.0
11
404.0
21
-127.121988657
31
0.0
0
LINE
5
952
100
AcDbEntity
100
AcDbLine
8
2
62
256
370
-1
6
ByLayer
10
404.0
20
-127.121988657
30
0.0
11
405.0
21
-127.279220614
31
0.0
0
LINE
5
953
100
AcDbEntity
100
AcDbLine
8
2
62
256
370
-1
6
ByLayer
10
405.0
20
-127.279220614
30
0.0
11
406.0
21
-127.436258577
31
0.0
0
LINE
5
954
100
AcDbEntity
100
AcDbLine
8
2
62
256
370
-1
6
ByLayer
10
406.0
20
-127.436258577
30
0.0
11
407.0
21
-127.593103262
31
0.0
0
LINE
5
955
100
AcDbEntity
100
AcDbLine
8
2
62
256
370
-1
6
ByLayer
10
407.0
20
-127.593103262
30
0.0
11
408.0
21
-127.749755381
31
0.0
0
LINE
5
956
100
AcDbEntity
100
AcDbLine
8
2
62
256
370
-1
6
ByLayer
10
408.0
20
-127.749755381
30
0.0
11
409.0
21
-127.906215643
31
0.0
0
LINE
5
957
100
AcDbEntity
100
AcDbLine
8
2
62
256
370
-1
6
ByLayer
10
409.0
20
-127.906215643
30
0.0
11
410.0
21
-128.062484749
31
0.0
0
LINE
5
958
100
AcDbEntity
100
AcDbLine
8
2
62
256
370
-1
6
ByLayer
10
410.0
20
-128.062484749
30
0.0
11
411.0
21
-128.218563399
31
0.0
0
LINE
5
959
100
AcDbEntity
100
AcDbLine
8
2
62
256
370
-1
6
ByLayer
10
411.0
20
-128.218563399
30
0.0
11
412.0
21
-128.374452287
31
0.0
0
LINE
5
960
100
AcDbEntity
100
AcDbLine
8
2
62
256
370
-1
6
ByLayer
10
412.0
20
-128.374452287
30
0.0
11
413.0
21
-128.530152104
31
0.0
0
LINE
5
961
100
AcDbEntity
100
AcDbLine
8
2
62
256
370
-1
6
ByLayer
10
413.0
20
-128.530152104
30
0.0
11
414.0
21
-128.685663537
31
0.0
0
LINE
5
962
100
AcDbEntity
100
AcDbLine
8
2
62
256
370
-1
6
ByLayer
10
414.0
20
-128.685663537
30
0.0
11
415.0
21
-128.840987267
31
0.0
0
LINE
5
963
100
AcDbEntity
100
AcDbLine
8
2
62
256
370
-1
6
ByLayer
10
415.0
20
-128.840987267
30
0.0
11
416.0
21
-128.996123973
31
0.0
0
LINE
5
964
100
AcDbEntity
100
AcDbLine
8
2
62
256
370
-1
6
ByLayer
10
416.0
20
-128.996123973
30
0.0
11
417.0
21
-129.151074328
31
0.0
0
LINE
5
965
100
AcDbEntity
100
AcDbLine
8
2
62
256
370
-1
6
ByLayer
10
417.0
20
-129.151074328
30
0.0
11
418.0
21
-129.305839002
31
0.0
0
LINE
5
966
100
AcDbEntity
100
AcDbLine
8
2
62
256
370
-1
6
ByLayer
10
418.0
20
-129.305839002
30
0.0
11
419.0
21
-129.460418661
31
0.0
0
LINE
5
967
100
AcDbEntity
100
AcDbLine
8
2
62
256
370
-1
6
ByLayer
10
419.0
20
-129.460418661
30
0.0
11
420.0
21
-129.614813968
31
0.0
0
LINE
5
968
100
AcDbEntity
100
AcDbLine
8
2
62
256
370
-1
6
ByLayer
10
420.0
20
-129.614813968
30
0.0
11
421.0
21
-129.76902558
31
0.0
0
LINE
5
969
100
AcDbEntity
100
AcDbLine
8
2
62
256
370
-1
6
ByLayer
10
421.0
20
-129.76902558
30
0.0
11
422.0
21
-129.923054151
31
0.0
0
LINE
5
970
100
AcDbEntity
100
AcDbLine
8
2
62
256
370
-1
6
ByLayer
10
422.0
20
-129.923054151
30
0.0
11
423.0
21
-130.076900332
31
0.0
0
LINE
5
971
100
AcDbEntity
100
AcDbLine
8
2
62
256
370
-1
6
ByLayer
10
423.0
20
-130.076900332
30
0.0
11
424.0
21
-130.230564769
31
0.0
0
LINE
5
972
100
AcDbEntity
100
AcDbLine
8
2
62
256
370
-1
6
ByLayer
10
424.0
20
-130.230564769
30
0.0
11
425.0
21
-130.384048104
31
0.0
0
LINE
5
973
100
AcDbEntity
100
AcDbLine
8
2
62
256
370
-1
6
ByLayer
10
425.0
20
-130.384048104
30
0.0
11
426.0
21
-130.537350977
31
0.0
0
LINE
5
974
100
AcDbEntity
100
AcDbLine
8
2
62
256
370
-1
6
ByLayer
10
426.0
20
-130.537350977
30
0.0
11
427.0
21
-130.690474022
31
0.0
0
LINE
5
975
100
AcDbEntity
100
AcDbLine
8
2
62
256
370
-1
6
ByLayer
10
427.0
20
-130.690474022
30
0.0
11
428.0
21
-130.84341787
31
0.0
0
LINE
5
976
100
AcDbEntity
100
AcDbLine
8
2
62
256
370
-1
6
ByLayer
10
428.0
20
-130.84341787
30
0.0
11
429.0
21
-130.996183151
31
0.0
0
LINE
5
977
100
AcDbEntity
100
AcDbLine
8
2
62
256
370
-1
6
ByLayer
10
429.0
20
-130.996183151
30
0.0
11
430.0
21
-131.148770486
31
0.0
0
LINE
5
978
100
AcDbEntity
100
AcDbLine
8
2
62
256
370
-1
6
ByLayer
10
430.0
20
-131.148770486
30
0.0
11
431.0
21
-131.301180497
31
0.0
0
LINE
5
979
100
AcDbEntity
100
AcDbLine
8
2
62
256
370
-1
6
ByLayer
10
431.0
20
-131.301180497
30
0.0
11
432.0
21
-131.453413801
31
0.0
0
LINE
5
980
100
AcDbEntity
100
AcDbLine
8
2
62
256
370
-1
6
ByLayer
10
432.0
20
-131.453413801
30
0.0
11
433.0
21
-131.605471011
31
0.0
0
LINE
5
981
100
AcDbEntity
100
AcDbLine
8
2
62
256
370
-1
6
ByLayer
10
433.0
20
-131.605471011
30
0.0
11
434.0
21
-131.757352736
31
0.0
0
LINE
5
982
100
AcDbEntity
100
AcDbLine
8
2
62
256
370
-1
6
ByLayer
10
434.0
20
-131.757352736
30
0.0
11
435.0
21
-131.909059583
31
0.0
0
LINE
5
983
100
AcDbEntity
100
AcDbLine
8
2
62
256
370
-1
6
ByLayer
10
435.0
20
-131.909059583
30
0.0
11
436.0
21
-132.060592154
31
0.0
0
LINE
5
984
100
AcDbEntity
100
AcDbLine
8
2
62
256
370
-1
6
ByLayer
10
436.0
20
-132.060592154
30
0.0
11
437.0
21
-132.211951048
31
0.0
0
LINE
5
985
100
AcDbEntity
100
AcDbLine
8
2
62
256
370
-1
6
ByLayer
10
437.0
20
-132.211951048
30
0.0
11
438.0
21
-132.363136862
31
0.0
0
LINE
5
986
100
AcDbEntity
100
AcDbLine
8
2
62
256
370
-1
6
ByLayer
10
438.0
20
-132.363136862
30
0.0
11
439.0
21
-132.514150188
31
0.0
0
LINE
5
987
100
AcDbEntity
100
AcDbLine
8
2
62
256
370
-1
6
ByLayer
10
439.0
20
-132.514150188
30
0.0
11
440.0
21
-132.664991614
31
0.0
0
LINE
5
988
100
AcDbEntity
100
AcDbLine
8
2
62
256
370
-1
6
ByLayer
10
440.0
20
-132.664991614
30
0.0
11
441.0
21
-132.815661727
31
0.0
0
LINE
5
989
100
AcDbEntity
100
AcDbLine
8
2
62
256
370
-1
6
ByLayer
10
441.0
20
-132.815661727
30
0.0
11
442.0
21
-132.966161109
31
0.0
0
LINE
5
990
100
AcDbEntity
100
AcDbLine
8
2
62
256
370
-1
6
ByLayer
10
442.0
20
-132.966161109
30
0.0
11
443.0
21
-133.116490338
31
0.0
0
LINE
5
991
100
AcDbEntity
100
AcDbLine
8
2
62
256
370
-1
6
ByLayer
10
443.0
20
-133.116490338
30
0.0
11
444.0
21
-133.266649992
31
0.0
0
LINE
5
992
100
AcDbEntity
100
AcDbLine
8
2
62
256
370
-1
6
ByLayer
10
444.0
20
-133.266649992
30
0.0
11
445.0
21
-133.416640641
31
0.0
0
LINE
5
993
100
AcDbEntity
100
AcDbLine
8
2
62
256
370
-1
6
ByLayer
10
445.0
20
-133.416640641
30
0.0
11
446.0
21
-133.566462857
31
0.0
0
LINE
5
994
100
AcDbEntity
100
AcDbLine
8
2
62
256
370
-1
6
ByLayer
10
446.0
20
-133.566462857
30
0.0
11
447.0
21
-133.716117204
31
0.0
0
LINE
5
995
100
AcDbEntity
100
AcDbLine
8
2
62
256
370
-1
6
ByLayer
10
447.0
20
-133.716117204
30
0.0
11
448.0
21
-133.865604245
31
0.0
0
LINE
5
996
100
AcDbEntity
100
AcDbLine
8
2
62
256
370
-1
6
ByLayer
10
448.0
20
-133.865604245
30
0.0
11
449.0
21
-134.014924542
31
0.0
0
LINE
5
997
100
AcDbEntity
100
AcDbLine
8
2
62
256
370
-1
6
ByLayer
10
449.0
20
-134.014924542
30
0.0
11
450.0
21
-134.16407865
31
0.0
0
LINE
5
998
100
AcDbEntity
100
AcDbLine
8
2
62
256
370
-1
6
ByLayer
10
450.0
20
-134.16407865
30
0.0
11
451.0
21
-134.313067123
31
0.0
0
LINE
5
999
100
AcDbEntity
100
AcDbLine
8
2
62
256
370
-1
6
ByLayer
10
451.0
20
-134.313067123
30
0.0
11
452.0
21
-134.461890512
31
0.0
0
LINE
5
1000
100
AcDbEntity
100
AcDbLine
8
2
62
256
370
-1
6
ByLayer
10
452.0
20
-134.461890512
30
0.0
11
453.0
21
-134.610549364
31
0.0
0
LINE
5
1001
100
AcDbEntity
100
AcDbLine
8
2
62
256
370
-1
6
ByLayer
10
453.0
20
-134.610549364
30
0.0
11
454.0
21
-134.759044223
31
0.0
0
LINE
5
1002
100
AcDbEntity
100
AcDbLine
8
2
62
256
370
-1
6
ByLayer
10
454.0
20
-134.759044223
30
0.0
11
455.0
21
-134.907375632
31
0.0
0
LINE
5
1003
100
AcDbEntity
100
AcDbLine
8
2
62
256
370
-1
6
ByLayer
10
455.0
20
-134.907375632
30
0.0
11
456.0
21
-135.055544129
31
0.0
0
LINE
5
1004
100
AcDbEntity
100
AcDbLine
8
2
62
256
370
-1
6
ByLayer
10
456.0
20
-135.055544129
30
0.0
11
457.0
21
-135.203550249
31
0.0
0
LINE
5
1005
100
AcDbEntity
100
AcDbLine
8
2
62
256
370
-1
6
ByLayer
10
457.0
20
-135.203550249
30
0.0
11
458.0
21
-135.351394526
31
0.0
0
LINE
5
1006
100
AcDbEntity
100
AcDbLine
8
2
62
256
370
-1
6
ByLayer
10
458.0
20
-135.351394526
30
0.0
11
459.0
21
-135.499077488
31
0.0
0
LINE
5
1007
100
AcDbEntity
100
AcDbLine
8
2
62
256
370
-1
6
ByLayer
10
459.0
20
-135.499077488
30
0.0
11
460.0
21
-135.646599663
31
0.0
0
LINE
5
1008
100
AcDbEntity
100
AcDbLine
8
2
62
256
370
-1
6
ByLayer
10
460.0
20
-135.646599663
30
0.0
11
461.0
21
-135.793961574
31
0.0
0
LINE
5
1009
100
AcDbEntity
100
AcDbLine
8
2
62
256
370
-1
6
ByLayer
10
461.0
20
-135.793961574
30
0.0
11
462.0
21
-135.941163744
31
0.0
0
LINE
5
1010
100
AcDbEntity
100
AcDbLine
8
2
62
256
370
-1
6
ByLayer
10
462.0
20
-135.941163744
30
0.0
11
463.0
21
-136.08820669
31
0.0
0
LINE
5
1011
100
AcDbEntity
100
AcDbLine
8
2
62
256
370
-1
6
ByLayer
10
463.0
20
-136.08820669
30
0.0
11
464.0
21
-136.235090927
31
0.0
0
LINE
5
1012
100
AcDbEntity
100
AcDbLine
8
2
62
256
370
-1
6
ByLayer
10
464.0
20
-136.235090927
30
0.0
11
465.0
21
-136.38181697
31
0.0
0
LINE
5
1013
100
AcDbEntity
100
AcDbLine
8
2
62
256
370
-1
6
ByLayer
10
465.0
20
-136.38181697
30
0.0
11
466.0
21
-136.528385327
31
0.0
0
LINE
5
1014
100
AcDbEntity
100
AcDbLine
8
2
62
256
370
-1
6
ByLayer
10
466.0
20
-136.528385327
30
0.0
11
467.0
21
-136.674796506
31
0.0
0
LINE
5
1015
100
AcDbEntity
100
AcDbLine
8
2
62
256
370
-1
6
ByLayer
10
467.0
20
-136.674796506
30
0.0
11
468.0
21
-136.821051012
31
0.0
0
LINE
5
1016
100
AcDbEntity
100
AcDbLine
8
2
62
256
370
-1
6
ByLayer
10
468.0
20
-136.821051012
30
0.0
11
469.0
21
-136.967149346
31
0.0
0
LINE
5
1017
100
AcDbEntity
100
AcDbLine
8
2
62
256
370
-1
6
ByLayer
10
469.0
20
-136.967149346
30
0.0
11
470.0
21
-137.113092008
31
0.0
0
LINE
5
1018
100
AcDbEntity
100
AcDbLine
8
2
62
256
370
-1
6
ByLayer
10
470.0
20
-137.113092008
30
0.0
11
471.0
21
-137.258879494
31
0.0
0
LINE
5
1019
100
AcDbEntity
100
AcDbLine
8
2
62
256
370
-1
6
ByLayer
10
471.0
20
-137.258879494
30
0.0
11
472.0
21
-137.404512299
31
0.0
0
LINE
5
1020
100
AcDbEntity
100
AcDbLine
8
2
62
256
370
-1
6
ByLayer
10
472.0
20
-137.404512299
30
0.0
11
473.0
21
-137.549990912
31
0.0
0
LINE
5
1021
100
AcDbEntity
100
AcDbLine
8
2
62
256
370
-1
6
ByLayer
10
473.0
20
-137.549990912
30
0.0
11
474.0
21
-137.695315824
31
0.0
0
LINE
5
1022
100
AcDbEntity
100
AcDbLine
8
2
62
256
370
-1
6
ByLayer
10
474.0
20
-137.695315824
30
0.0
11
475.0
21
-137.840487521
31
0.0
0
LINE
5
1023
100
AcDbEntity
100
AcDbLine
8
2
62
256
370
-1
6
ByLayer
10
475.0
20
-137.840487521
30
0.0
11
476.0
21
-137.985506485
31
0.0
0
LINE
5
1024
100
AcDbEntity
100
AcDbLine
8
2
62
256
370
-1
6
ByLayer
10
476.0
20
-137.985506485
30
0.0
11
477.0
21
-138.130373199
31
0.0
0
LINE
5
1025
100
AcDbEntity
100
AcDbLine
8
2
62
256
370
-1
6
ByLayer
10
477.0
20
-138.130373199
30
0.0
11
478.0
21
-138.27508814
31
0.0
0
LINE
5
1026
100
AcDbEntity
100
AcDbLine
8
2
62
256
370
-1
6
ByLayer
10
478.0
20
-138.27508814
30
0.0
11
479.0
21
-138.419651784
31
0.0
0
LINE
5
1027
100
AcDbEntity
100
AcDbLine
8
2
62
256
370
-1
6
ByLayer
10
479.0
20
-138.419651784
30
0.0
11
480.0
21
-138.564064606
31
0.0
0
LINE
5
1028
100
AcDbEntity
100
AcDbLine
8
2
62
256
370
-1
6
ByLayer
10
480.0
20
-138.564064606
30
0.0
11
481.0
21
-138.708327075
31
0.0
0
LINE
5
1029
100
AcDbEntity
100
AcDbLine
8
2
62
256
370
-1
6
ByLayer
10
481.0
20
-138.708327075
30
0.0
11
482.0
21
-138.852439662
31
0.0
0
LINE
5
1030
100
AcDbEntity
100
AcDbLine
8
2
62
256
370
-1
6
ByLayer
10
482.0
20
-138.852439662
30
0.0
11
483.0
21
-138.996402831
31
0.0
0
LINE
5
1031
100
AcDbEntity
100
AcDbLine
8
2
62
256
370
-1
6
ByLayer
10
483.0
20
-138.996402831
30
0.0
11
484.0
21
-139.140217047
31
0.0
0
LINE
5
1032
100
AcDbEntity
100
AcDbLine
8
2
62
256
370
-1
6
ByLayer
10
484.0
20
-139.140217047
30
0.0
11
485.0
21
-139.283882772
31
0.0
0
LINE
5
1033
100
AcDbEntity
100
AcDbLine
8
2
62
256
370
-1
6
ByLayer
10
485.0
20
-139.283882772
30
0.0
11
486.0
21
-139.427400463
31
0.0
0
LINE
5
1034
100
AcDbEntity
100
AcDbLine
8
2
62
256
370
-1
6
ByLayer
10
486.0
20
-139.427400463
30
0.0
11
487.0
21
-139.570770579
31
0.0
0
LINE
5
1035
100
AcDbEntity
100
AcDbLine
8
2
62
256
370
-1
6
ByLayer
10
487.0
20
-139.570770579
30
0.0
11
488.0
21
-139.713993573
31
0.0
0
LINE
5
1036
100
AcDbEntity
100
AcDbLine
8
2
62
256
370
-1
6
ByLayer
10
488.0
20
-139.713993573
30
0.0
11
489.0
21
-139.857069896
31
0.0
0
LINE
5
1037
100
AcDbEntity
100
AcDbLine
8
2
62
256
370
-1
6
ByLayer
10
489.0
20
-139.857069896
30
0.0
11
490.0
21
-140.0
31
0.0
0
LINE
5
1038
100
AcDbEntity
100
AcDbLine
8
2
62
256
370
-1
6
ByLayer
10
490.0
20
-140.0
30
0.0
11
491.0
21
-140.142784331
31
0.0
0
LINE
5
1039
100
AcDbEntity
100
AcDbLine
8
2
62
256
370
-1
6
ByLayer
10
491.0
20
-140.142784331
30
0.0
11
492.0
21
-140.285423334
31
0.0
0
LINE
5
1040
100
AcDbEntity
100
AcDbLine
8
2
62
256
370
-1
6
ByLayer
10
492.0
20
-140.285423334
30
0.0
11
493.0
21
-140.427917452
31
0.0
0
LINE
5
1041
100
AcDbEntity
100
AcDbLine
8
2
62
256
370
-1
6
ByLayer
10
493.0
20
-140.427917452
30
0.0
11
494.0
21
-140.570267126
31
0.0
0
LINE
5
1042
100
AcDbEntity
100
AcDbLine
8
2
62
256
370
-1
6
ByLayer
10
494.0
20
-140.570267126
30
0.0
11
495.0
21
-140.712472795
31
0.0
0
LINE
5
1043
100
AcDbEntity
100
AcDbLine
8
2
62
256
370
-1
6
ByLayer
10
495.0
20
-140.712472795
30
0.0
11
496.0
21
-140.854534893
31
0.0
0
LINE
5
1044
100
AcDbEntity
100
AcDbLine
8
2
62
256
370
-1
6
ByLayer
10
496.0
20
-140.854534893
30
0.0
11
497.0
21
-140.996453856
31
0.0
0
LINE
5
1045
100
AcDbEntity
100
AcDbLine
8
2
62
256
370
-1
6
ByLayer
10
497.0
20
-140.996453856
30
0.0
11
498.0
21
-141.138230115
31
0.0
0
LINE
5
1046
100
AcDbEntity
100
AcDbLine
8
2
62
256
370
-1
6
ByLayer
10
498.0
20
-141.138230115
30
0.0
11
499.0
21
-141.2798641
31
0.0
0
LINE
5
1047
100
AcDbEntity
100
AcDbLine
8
2
62
256
370
-1
6
ByLayer
10
499.0
20
-141.2798641
30
0.0
11
500.0
21
-141.421356237
31
0.0
0
MTEXT
5
1048
100
AcDbEntity
100
AcDbMText
8
2
62
256
370
-1
6
ByLayer
10
250.0
20
-15.0
30
0.0
40
10
41
100.0
71
8
72
0
1

7
normallatin1
50
0.0
73
1
44
1.0
0
MTEXT
5
1049
100
AcDbEntity
100
AcDbMText
8
2
62
256
370
-1
6
ByLayer
10
250.0
20
-156.421356237
30
0.0
40
10
41
100.0
71
8
72
0
1
Parabolic Curve
7
normallatin1
50
0.0
73
1
44
1.0
0
ENDSEC
  0
SECTION
  2
OBJECTS
  0
DICTIONARY
  5
C
100
AcDbDictionary
280
0
281
1
  3
ACAD_GROUP
350
D
  3
ACAD_LAYOUT
350
1A
  3
ACAD_MLINESTYLE
350
17
  3
ACAD_PLOTSETTINGS
350
19
  3
ACAD_PLOTSTYLENAME
350
E
  3
AcDbVariableDictionary
350
48
  0
DICTIONARY
  5
D
100
AcDbDictionary
280
0
281
1
  0
ACDBDICTIONARYWDFLT
  5
E
100
AcDbDictionary
281
1
  3
Normal
350
F
100
AcDbDictionaryWithDefault
340
F
  0
ACDBPLACEHOLDER
  5
F
  0
DICTIONARY
  5
17
100
AcDbDictionary
280
0
281
1
  3
Standard
350
18
  0
MLINESTYLE
  5
18
100
AcDbMlineStyle
  2
STANDARD
 70
0
  3

 62
256
 51
90.0
 52
90.0
 71
2
 49
0.5
 62
256
  6
BYLAYER
 49
-0.5
 62
256
  6
BYLAYER
  0
DICTIONARY
  5
19
100
AcDbDictionary
280
0
281
1
  0
DICTIONARY
  5
1A
100
AcDbDictionary
281
1
  3
Layout1
350
1E
  3
Layout2
350
26
  3
Model
350
22
  0
LAYOUT
  5
1E
100
AcDbPlotSettings
  1

  2
C:\Program Files\AutoCAD 2002\plotters\DWF ePlot (optimized for plotting).pc3
  4

  6

 40
0.0
 41
0.0
 42
0.0
 43
0.0
 44
0.0
 45
0.0
 46
0.0
 47
0.0
 48
0.0
 49
0.0
140
0.0
141
0.0
142
1.0
143
1.0
 70
688
 72
0
 73
0
 74
5
  7

 75
16
147
1.0
148
0.0
149
0.0
100
AcDbLayout
  1
Layout1
 70
1
 71
1
 10
0.0
 20
0.0
 11
420.0
 21
297.0
 12
0.0
 22
0.0
 32
0.0
 14
100000000000000000000.0
 24
100000000000000000000.0
 34
100000000000000000000.0
 15
-100000000000000000000.0
 25
-100000000000000000000.0
 35
-100000000000000000000.0
146
0.0
 13
0.0
 23
0.0
 33
0.0
 16
1.0
 26
0.0
 36
0.0
 17
0.0
 27
1.0
 37
0.0
 76
0
330
1B
  0
LAYOUT
  5
22
100
AcDbPlotSettings
  1

  2
C:\Program Files\AutoCAD 2002\plotters\DWF ePlot (optimized for plotting).pc3
  4

  6

 40
0.0
 41
0.0
 42
0.0
 43
0.0
 44
0.0
 45
0.0
 46
0.0
 47
0.0
 48
0.0
 49
0.0
140
0.0
141
0.0
142
1.0
143
1.0
 70
1712
 72
0
 73
0
 74
0
  7

 75
0
147
1.0
148
0.0
149
0.0
100
AcDbLayout
  1
Model
 70
1
 71
0
 10
0.0
 20
0.0
 11
12.0
 21
9.0
 12
0.0
 22
0.0
 32
0.0
 14
0.0
 24
0.0
 34
0.0
 15
0.0
 25
0.0
 35
0.0
146
0.0
 13
0.0
 23
0.0
 33
0.0
 16
1.0
 26
0.0
 36
0.0
 17
0.0
 27
1.0
 37
0.0
 76
0
330
1F
  0
LAYOUT
  5
26
100
AcDbPlotSettings
  1

  2
C:\Program Files\AutoCAD 2002\plotters\DWF ePlot (optimized for plotting).pc3
  4

  6

 40
0.0
 41
0.0
 42
0.0
 43
0.0
 44
0.0
 45
0.0
 46
0.0
 47
0.0
 48
0.0
 49
0.0
140
0.0
141
0.0
142
1.0
143
1.0
 70
688
 72
0
 73
0
 74
5
  7

 75
16
147
1.0
148
0.0
149
0.0
100
AcDbLayout
  1
Layout2
 70
1
 71
2
 10
0.0
 20
0.0
 11
12.0
 21
9.0
 12
0.0
 22
0.0
 32
0.0
 14
0.0
 24
0.0
 34
0.0
 15
0.0
 25
0.0
 35
0.0
146
0.0
 13
0.0
 23
0.0
 33
0.0
 16
1.0
 26
0.0
 36
0.0
 17
0.0
 27
1.0
 37
0.0
 76
0
330
23
  0
DICTIONARY
  5
48
100
AcDbDictionary
281
1
  3
DIMASSOC
350
4A
  3
HIDETEXT
350
49
  0
DICTIONARYVAR
  5
49
100
DictionaryVariables
280
0
  1
2
  0
DICTIONARYVAR
  5
4A
100
DictionaryVariables
280
0
  1
1
  0
ENDSEC
  0
EOF
