999
dxflib 2.0.4.8
  0
SECTION
  2
HEADER
  9
$ACADVER
  1
AC1015
  9
$HANDSEED
  5
FFFF
  9
$DIMASZ
 40
2.5
  9
$DIMGAP
 40
0.625
  9
$DIMEXO
 40
0.625
  9
$INSUNITS
 70
4
  9
$DIMTXT
 40
2.5
  9
$PLIMMAX
 10
210.0
 20
297.0
  9
$PLIMMIN
 10
0.0
 20
0.0
  9
$DIMEXE
 40
1.25
  0
ENDSEC
  0
SECTION
  2
TABLES
  0
TABLE
  2
VPORT
  5
8
100
AcDbSymbolTable
 70
1
  0
VPORT
  5
30
100
AcDbSymbolTableRecord
100
AcDbViewportTableRecord
  2
*Active
 70
0
 10
0.0
 20
0.0
 11
1.0
 21
1.0
 12
286.3055555555554861
 22
148.5
 13
0.0
 23
0.0
 14
10.0
 24
10.0
 15
10.0
 25
10.0
 16
0.0
 26
0.0
 36
1.0
 17
0.0
 27
0.0
 37
0.0
 40
297.0
 41
1.92798353909465
 42
50.0
 43
0.0
 44
0.0
 50
0.0
 51
0.0
 71
0
 72
100
 73
1
 74
3
 75
1
 76
1
 77
0
 78
0
281
0
 65
1
110
0.0
120
0.0
130
0.0
111
1.0
121
0.0
131
0.0
112
0.0
122
1.0
132
0.0
 79
0
146
0.0
  0
ENDTAB
  0
TABLE
  2
LTYPE
  5
5
100
AcDbSymbolTable
 70
21
  0
LTYPE
  5
14
100
AcDbSymbolTableRecord
100
AcDbLinetypeTableRecord
  2
ByBlock
 70
0
  3

 72
65
 73
0
 40
0.0
  0
LTYPE
  5
15
100
AcDbSymbolTableRecord
100
AcDbLinetypeTableRecord
  2
ByLayer
 70
0
  3

 72
65
 73
0
 40
0.0
  0
LTYPE
  5
16
100
AcDbSymbolTableRecord
100
AcDbLinetypeTableRecord
  2
CONTINUOUS
 70
0
  3
Solid line
 72
65
 73
0
 40
0.0
  0
LTYPE
  5
31
100
AcDbSymbolTableRecord
100
AcDbLinetypeTableRecord
  2
DOT
 70
0
  3
Dot . . . . . . . . . . . . . . . . . . . . . .
 72
65
 73
2
 40
6.3499999999999996
 49
0.0
 74
0
 49
-6.3499999999999996
 74
0
  0
LTYPE
  5
32
100
AcDbSymbolTableRecord
100
AcDbLinetypeTableRecord
  2
DOT2
 70
0
  3
Dot (.5x) .....................................
 72
65
 73
2
 40
3.1749999999999998
 49
0.0
 74
0
 49
-3.1749999999999998
 74
0
  0
LTYPE
  5
33
100
AcDbSymbolTableRecord
100
AcDbLinetypeTableRecord
  2
DOTX2
 70
0
  3
Dot (2x) .  .  .  .  .  .  .  .  .  .  .  .  .
 72
65
 73
2
 40
12.6999999999999993
 49
0.0
 74
0
 49
-12.6999999999999993
 74
0
  0
LTYPE
  5
34
100
AcDbSymbolTableRecord
100
AcDbLinetypeTableRecord
  2
DASHED
 70
0
  3
Dashed __ __ __ __ __ __ __ __ __ __ __ __ __ _
 72
65
 73
2
 40
19.0500000000000007
 49
12.6999999999999993
 74
0
 49
-6.3499999999999996
 74
0
  0
LTYPE
  5
35
100
AcDbSymbolTableRecord
100
AcDbLinetypeTableRecord
  2
DASHED2
 70
0
  3
Dashed (.5x) _ _ _ _ _ _ _ _ _ _ _ _ _ _ _ _ _
 72
65
 73
2
 40
9.5250000000000004
 49
6.3499999999999996
 74
0
 49
-3.1749999999999998
 74
0
  0
LTYPE
  5
36
100
AcDbSymbolTableRecord
100
AcDbLinetypeTableRecord
  2
DASHEDX2
 70
0
  3
Dashed (2x) ____  ____  ____  ____  ____  ___
 72
65
 73
2
 40
38.1000000000000014
 49
25.3999999999999986
 74
0
 49
-12.6999999999999993
 74
0
  0
LTYPE
  5
37
100
AcDbSymbolTableRecord
100
AcDbLinetypeTableRecord
  2
DASHDOT
 70
0
  3
Dash dot __ . __ . __ . __ . __ . __ . __ . __
 72
65
 73
4
 40
25.3999999999999986
 49
12.6999999999999993
 74
0
 49
-6.3499999999999996
 74
0
 49
0.0
 74
0
 49
-6.3499999999999996
 74
0
  0
LTYPE
  5
38
100
AcDbSymbolTableRecord
100
AcDbLinetypeTableRecord
  2
DASHDOT2
 70
0
  3
Dash dot (.5x) _._._._._._._._._._._._._._._.
 72
65
 73
4
 40
12.6999999999999993
 49
6.3499999999999996
 74
0
 49
-3.1749999999999998
 74
0
 49
0.0
 74
0
 49
-3.1749999999999998
 74
0
  0
LTYPE
  5
39
100
AcDbSymbolTableRecord
100
AcDbLinetypeTableRecord
  2
DASHDOTX2
 70
0
  3
Dash dot (2x) ____  .  ____  .  ____  .  ___
 72
65
 73
4
 40
50.7999999999999972
 49
25.3999999999999986
 74
0
 49
-12.6999999999999993
 74
0
 49
0.0
 74
0
 49
-12.6999999999999993
 74
0
  0
LTYPE
  5
3A
100
AcDbSymbolTableRecord
100
AcDbLinetypeTableRecord
  2
DIVIDE
 70
0
  3
Divide ____ . . ____ . . ____ . . ____ . . ____
 72
65
 73
6
 40
31.75
 49
12.6999999999999993
 74
0
 49
-6.3499999999999996
 74
0
 49
0.0
 74
0
 49
-6.3499999999999996
 74
0
 49
0.0
 74
0
 49
-6.3499999999999996
 74
0
  0
LTYPE
  5
3B
100
AcDbSymbolTableRecord
100
AcDbLinetypeTableRecord
  2
DIVIDE2
 70
0
  3
Divide (.5x) __..__..__..__..__..__..__..__.._
 72
65
 73
6
 40
15.875
 49
6.3499999999999996
 74
0
 49
-3.1749999999999998
 74
0
 49
0.0
 74
0
 49
-3.1749999999999998
 74
0
 49
0.0
 74
0
 49
-3.1749999999999998
 74
0
  0
LTYPE
  5
3C
100
AcDbSymbolTableRecord
100
AcDbLinetypeTableRecord
  2
DIVIDEX2
 70
0
  3
Divide (2x) ________  .  .  ________  .  .  _
 72
65
 73
6
 40
63.5
 49
25.3999999999999986
 74
0
 49
-12.6999999999999993
 74
0
 49
0.0
 74
0
 49
-12.6999999999999993
 74
0
 49
0.0
 74
0
 49
-12.6999999999999993
 74
0
  0
LTYPE
  5
3D
100
AcDbSymbolTableRecord
100
AcDbLinetypeTableRecord
  2
CENTER
 70
0
  3
Center ____ _ ____ _ ____ _ ____ _ ____ _ ____
 72
65
 73
4
 40
50.7999999999999972
 49
31.75
 74
0
 49
-6.3499999999999996
 74
0
 49
6.3499999999999996
 74
0
 49
-6.3499999999999996
 74
0
  0
LTYPE
  5
3E
100
AcDbSymbolTableRecord
100
AcDbLinetypeTableRecord
  2
CENTER2
 70
0
  3
Center (.5x) ___ _ ___ _ ___ _ ___ _ ___ _ ___
 72
65
 73
4
 40
28.5749999999999993
 49
19.0500000000000007
 74
0
 49
-3.1749999999999998
 74
0
 49
3.1749999999999998
 74
0
 49
-3.1749999999999998
 74
0
  0
LTYPE
  5
3F
100
AcDbSymbolTableRecord
100
AcDbLinetypeTableRecord
  2
CENTERX2
 70
0
  3
Center (2x) ________  __  ________  __  _____
 72
65
 73
4
 40
101.5999999999999943
 49
63.5
 74
0
 49
-12.6999999999999993
 74
0
 49
12.6999999999999993
 74
0
 49
-12.6999999999999993
 74
0
  0
LTYPE
  5
40
100
AcDbSymbolTableRecord
100
AcDbLinetypeTableRecord
  2
BORDER
 70
0
  3
Border __ __ . __ __ . __ __ . __ __ . __ __ .
 72
65
 73
6
 40
44.4500000000000028
 49
12.6999999999999993
 74
0
 49
-6.3499999999999996
 74
0
 49
12.6999999999999993
 74
0
 49
-6.3499999999999996
 74
0
 49
0.0
 74
0
 49
-6.3499999999999996
 74
0
  0
LTYPE
  5
41
100
AcDbSymbolTableRecord
100
AcDbLinetypeTableRecord
  2
BORDER2
 70
0
  3
Border (.5x) __.__.__.__.__.__.__.__.__.__.__.
 72
65
 73
6
 40
22.2250000000000014
 49
6.3499999999999996
 74
0
 49
-3.1749999999999998
 74
0
 49
6.3499999999999996
 74
0
 49
-3.1749999999999998
 74
0
 49
0.0
 74
0
 49
-3.1749999999999998
 74
0
  0
LTYPE
  5
42
100
AcDbSymbolTableRecord
100
AcDbLinetypeTableRecord
  2
BORDERX2
 70
0
  3
Border (2x) ____  ____  .  ____  ____  .  ___
 72
65
 73
6
 40
88.9000000000000057
 49
25.3999999999999986
 74
0
 49
-12.6999999999999993
 74
0
 49
25.3999999999999986
 74
0
 49
-12.6999999999999993
 74
0
 49
0.0
 74
0
 49
-12.6999999999999993
 74
0
  0
ENDTAB
  0
TABLE
  2
LAYER
  5
2
100
AcDbSymbolTable
 70
6
  0
LAYER
  5
10
100
AcDbSymbolTableRecord
100
AcDbLayerTableRecord
  2
0
 70
0
 62
7
  6
CONTINUOUS
370
0
390
F
  0
LAYER
  5
43
100
AcDbSymbolTableRecord
100
AcDbLayerTableRecord
  2
1
 70
0
 62
6
  6
CONTINUOUS
370
0
390
F
  0
LAYER
  5
44
100
AcDbSymbolTableRecord
100
AcDbLayerTableRecord
  2
2
 70
0
 62
2
  6
CONTINUOUS
370
0
390
F
  0
LAYER
  5
45
100
AcDbSymbolTableRecord
100
AcDbLayerTableRecord
  2
3
 70
0
 62
3
  6
CONTINUOUS
370
0
390
F
  0
LAYER
  5
46
100
AcDbSymbolTableRecord
100
AcDbLayerTableRecord
  2
4
 70
0
 62
1
  6
CONTINUOUS
370
0
390
F
  0
LAYER
  5
47
100
AcDbSymbolTableRecord
100
AcDbLayerTableRecord
  2
5
 70
0
 62
5
  6
CONTINUOUS
370
0
390
F
  0
ENDTAB
  0
TABLE
  2
STYLE
  5
3
100
AcDbSymbolTable
 70
1
  0
STYLE
  5
11
100
AcDbSymbolTableRecord
100
AcDbTextStyleTableRecord
  2
Standard
 70
0
 40
0.0
 41
0.75
 50
0.0
 71
0
 42
2.5
  3
txt
  4

  0
ENDTAB
  0
TABLE
  2
VIEW
  5
6
100
AcDbSymbolTable
 70
0
  0
ENDTAB
  0
TABLE
  2
UCS
  5
7
100
AcDbSymbolTable
 70
0
  0
ENDTAB
  0
TABLE
  2
APPID
  5
9
100
AcDbSymbolTable
 70
1
  0
APPID
  5
12
100
AcDbSymbolTableRecord
100
AcDbRegAppTableRecord
  2
ACAD
 70
0
  0
ENDTAB
  0
TABLE
  2
DIMSTYLE
  5
A
100
AcDbSymbolTable
 70
1
100
AcDbDimStyleTable
 71
0
  0
DIMSTYLE
105
27
100
AcDbSymbolTableRecord
100
AcDbDimStyleTableRecord
  2
Standard
 41
2.5
 42
0.625
 43
3.75
 44
1.25
 70
0
 73
0
 74
0
 77
1
 78
8
140
2.5
141
2.5
143
0.03937007874016
147
0.625
171
3
172
1
271
2
272
2
274
3
278
44
283
0
284
8
340
11
  0
ENDTAB
  0
TABLE
  2
BLOCK_RECORD
  5
1
100
AcDbSymbolTable
 70
1
  0
BLOCK_RECORD
  5
1F
100
AcDbSymbolTableRecord
100
AcDbBlockTableRecord
  2
*Model_Space
340
22
  0
BLOCK_RECORD
  5
1B
100
AcDbSymbolTableRecord
100
AcDbBlockTableRecord
  2
*Paper_Space
340
1E
  0
BLOCK_RECORD
  5
23
100
AcDbSymbolTableRecord
100
AcDbBlockTableRecord
  2
*Paper_Space0
340
26
  0
ENDTAB
  0
ENDSEC
  0
SECTION
  2
BLOCKS
  0
BLOCK
  5
20
100
AcDbEntity
  8
0
100
AcDbBlockBegin
  2
*Model_Space
 70
0
 10
0.0
 20
0.0
 30
0.0
  3
*Model_Space
  1

  0
ENDBLK
  5
21
100
AcDbEntity
  8
0
100
AcDbBlockEnd
  0
BLOCK
  5
1C
100
AcDbEntity
 67
1
  8
0
100
AcDbBlockBegin
  2
*Paper_Space
 70
0
 10
0.0
 20
0.0
 30
0.0
  3
*Paper_Space
  1

  0
ENDBLK
  5
1D
100
AcDbEntity
 67
1
  8
0
100
AcDbBlockEnd
  0
BLOCK
  5
24
100
AcDbEntity
  8
0
100
AcDbBlockBegin
  2
*Paper_Space0
 70
0
 10
0.0
 20
0.0
 30
0.0
  3
*Paper_Space0
  1

  0
ENDBLK
  5
25
100
AcDbEntity
  8
0
100
AcDbBlockEnd
  0
ENDSEC
  0
SECTION
  2
ENTITIES
  0
LINE
5
48
100
AcDbEntity
100
AcDbLine
8
3
62
256
370
-1
6
ByLayer
10
2.0
20
0.0
30
0.0
11
2.00243966428
21
0.0349527143548
31
0.0
0
LINE
5
49
100
AcDbEntity
100
AcDbLine
8
3
62
256
370
-1
6
ByLayer
10
2.00243966428
20
0.0349527143548
30
0.0
11
2.00979150218
21
0.0701834657739
31
0.0
0
LINE
5
50
100
AcDbEntity
100
AcDbLine
8
3
62
256
370
-1
6
ByLayer
10
2.00979150218
20
0.0701834657739
30
0.0
11
2.02215515504
21
0.105976661041
31
0.0
0
LINE
5
51
100
AcDbEntity
100
AcDbLine
8
3
62
256
370
-1
6
ByLayer
10
2.02215515504
20
0.105976661041
30
0.0
11
2.03970044912
21
0.142629749727
31
0.0
0
LINE
5
52
100
AcDbEntity
100
AcDbLine
8
3
62
256
370
-1
6
ByLayer
10
2.03970044912
20
0.142629749727
30
0.0
11
2.06267328397
21
0.180460528905
31
0.0
0
LINE
5
53
100
AcDbEntity
100
AcDbLine
8
3
62
256
370
-1
6
ByLayer
10
2.06267328397
20
0.180460528905
30
0.0
11
2.09140440832
21
0.219815460967
31
0.0
0
LINE
5
54
100
AcDbEntity
100
AcDbLine
8
3
62
256
370
-1
6
ByLayer
10
2.09140440832
20
0.219815460967
30
0.0
11
2.12632168257
21
0.261079474133
31
0.0
0
LINE
5
55
100
AcDbEntity
100
AcDbLine
8
3
62
256
370
-1
6
ByLayer
10
2.12632168257
20
0.261079474133
30
0.0
11
2.16796670698
21
0.304687850606
31
0.0
0
LINE
5
56
100
AcDbEntity
100
AcDbLine
8
3
62
256
370
-1
6
ByLayer
10
2.16796670698
20
0.304687850606
30
0.0
11
2.21701707851
21
0.35114100917
31
0.0
0
LINE
5
57
100
AcDbEntity
100
AcDbLine
8
3
62
256
370
-1
6
ByLayer
10
2.21701707851
20
0.35114100917
30
0.0
11
2.27431608521
21
0.401023288481
31
0.0
0
LINE
5
58
100
AcDbEntity
100
AcDbLine
8
3
62
256
370
-1
6
ByLayer
10
2.27431608521
20
0.401023288481
30
0.0
11
2.34091244159
21
0.45502728406
31
0.0
0
LINE
5
59
100
AcDbEntity
100
AcDbLine
8
3
62
256
370
-1
6
ByLayer
10
2.34091244159
20
0.45502728406
30
0.0
11
2.41811385307
21
0.513985966335
31
0.0
0
LINE
5
60
100
AcDbEntity
100
AcDbLine
8
3
62
256
370
-1
6
ByLayer
10
2.41811385307
20
0.513985966335
30
0.0
11
2.50756000316
21
0.578915842069
31
0.0
0
LINE
5
61
100
AcDbEntity
100
AcDbLine
8
3
62
256
370
-1
6
ByLayer
10
2.50756000316
20
0.578915842069
30
0.0
11
2.61132337335
21
0.651076041455
31
0.0
0
LINE
5
62
100
AcDbEntity
100
AcDbLine
8
3
62
256
370
-1
6
ByLayer
10
2.61132337335
20
0.651076041455
30
0.0
11
2.73205080757
21
0.732050807569
31
0.0
0
LINE
5
63
100
AcDbEntity
100
AcDbLine
8
3
62
256
370
-1
6
ByLayer
10
2.73205080757
20
0.732050807569
30
0.0
11
2.87316612573
21
0.82386712907
31
0.0
0
LINE
5
64
100
AcDbEntity
100
AcDbLine
8
3
62
256
370
-1
6
ByLayer
10
2.87316612573
20
0.82386712907
30
0.0
11
3.03916659801
21
0.929166475076
31
0.0
0
LINE
5
65
100
AcDbEntity
100
AcDbLine
8
3
62
256
370
-1
6
ByLayer
10
3.03916659801
20
0.929166475076
30
0.0
11
3.2360679775
21
1.05146222424
31
0.0
0
LINE
5
66
100
AcDbEntity
100
AcDbLine
8
3
62
256
370
-1
6
ByLayer
10
3.2360679775
20
1.05146222424
30
0.0
11
3.47209257806
21
1.19553735052
31
0.0
0
LINE
5
67
100
AcDbEntity
100
AcDbLine
8
3
62
256
370
-1
6
ByLayer
10
3.47209257806
20
1.19553735052
30
0.0
11
3.75877048314
21
1.3680805733
31
0.0
0
LINE
5
68
100
AcDbEntity
100
AcDbLine
8
3
62
256
370
-1
6
ByLayer
10
3.75877048314
20
1.3680805733
30
0.0
11
4.11277516614
21
1.57874647047
31
0.0
0
LINE
5
69
100
AcDbEntity
100
AcDbLine
8
3
62
256
370
-1
6
ByLayer
10
4.11277516614
20
1.57874647047
30
0.0
11
4.55913609138
21
1.84201054807
31
0.0
0
LINE
5
70
100
AcDbEntity
100
AcDbLine
8
3
62
256
370
-1
6
ByLayer
10
4.55913609138
20
1.84201054807
30
0.0
11
5.13720523624
21
2.18061424848
31
0.0
0
LINE
5
71
100
AcDbEntity
100
AcDbLine
8
3
62
256
370
-1
6
ByLayer
10
5.13720523624
20
2.18061424848
30
0.0
11
5.91259040294
21
2.63245485187
31
0.0
0
LINE
5
72
100
AcDbEntity
100
AcDbLine
8
3
62
256
370
-1
6
ByLayer
10
5.91259040294
20
2.63245485187
30
0.0
11
7.00340878452
21
3.26574314941
31
0.0
0
LINE
5
73
100
AcDbEntity
100
AcDbLine
8
3
62
256
370
-1
6
ByLayer
10
7.00340878452
20
3.26574314941
30
0.0
11
8.64592118667
21
4.21689752091
31
0.0
0
LINE
5
74
100
AcDbEntity
100
AcDbLine
8
3
62
256
370
-1
6
ByLayer
10
8.64592118667
20
4.21689752091
30
0.0
11
11.3914350519
21
5.80422606518
31
0.0
0
LINE
5
75
100
AcDbEntity
100
AcDbLine
8
3
62
256
370
-1
6
ByLayer
10
11.3914350519
20
5.80422606518
30
0.0
11
16.89391703
21
8.98265502256
31
0.0
0
LINE
5
76
100
AcDbEntity
100
AcDbLine
8
3
62
256
370
-1
6
ByLayer
10
16.89391703
20
8.98265502256
30
0.0
11
33.4232818095
21
18.5268276363
31
0.0
0
LINE
5
77
100
AcDbEntity
100
AcDbLine
8
3
62
256
370
-1
6
ByLayer
10
33.4232818095
20
18.5268276363
30
0.0
11
2.82874705355e+16
21
1.63317787284e+16
31
0.0
0
LINE
5
78
100
AcDbEntity
100
AcDbLine
8
3
62
256
370
-1
6
ByLayer
10
2.82874705355e+16
20
1.63317787284e+16
30
0.0
11
-32.7563442893
21
-19.6819973068
31
0.0
0
LINE
5
79
100
AcDbEntity
100
AcDbLine
8
3
62
256
370
-1
6
ByLayer
10
-32.7563442893
20
-19.6819973068
30
0.0
11
-16.226165958
21
-10.1392338061
31
0.0
0
LINE
5
80
100
AcDbEntity
100
AcDbLine
8
3
62
256
370
-1
6
ByLayer
10
-16.226165958
20
-10.1392338061
30
0.0
11
-10.7223247477
21
-6.96315910787
31
0.0
0
LINE
5
81
100
AcDbEntity
100
AcDbLine
8
3
62
256
370
-1
6
ByLayer
10
-10.7223247477
20
-6.96315910787
30
0.0
11
-7.9749009716
21
-5.37913862632
31
0.0
0
LINE
5
82
100
AcDbEntity
100
AcDbLine
8
3
62
256
370
-1
6
ByLayer
10
-7.9749009716
20
-5.37913862632
30
0.0
11
-6.32992092189
21
-4.43225834578
31
0.0
0
LINE
5
83
100
AcDbEntity
100
AcDbLine
8
3
62
256
370
-1
6
ByLayer
10
-6.32992092189
20
-4.43225834578
30
0.0
11
-5.2360679775
21
-3.80422606518
31
0.0
0
LINE
5
84
100
AcDbEntity
100
AcDbLine
8
3
62
256
370
-1
6
ByLayer
10
-5.2360679775
20
-3.80422606518
30
0.0
11
-4.45706995316
21
-3.3586431148
31
0.0
0
LINE
5
85
100
AcDbEntity
100
AcDbLine
8
3
62
256
370
-1
6
ByLayer
10
-4.45706995316
20
-3.3586431148
30
0.0
11
-3.87479597436
21
-3.02732240041
31
0.0
0
LINE
5
86
100
AcDbEntity
100
AcDbLine
8
3
62
256
370
-1
6
ByLayer
10
-3.87479597436
20
-3.02732240041
30
0.0
11
-3.42362213263
21
-2.7723945387
31
0.0
0
LINE
5
87
100
AcDbEntity
100
AcDbLine
8
3
62
256
370
-1
6
ByLayer
10
-3.42362213263
20
-2.7723945387
30
0.0
11
-3.06417777248
21
-2.57115043875
31
0.0
0
LINE
5
88
100
AcDbEntity
100
AcDbLine
8
3
62
256
370
-1
6
ByLayer
10
-3.06417777248
20
-2.57115043875
30
0.0
11
-2.77141200576
21
-2.40915170163
31
0.0
0
LINE
5
89
100
AcDbEntity
100
AcDbLine
8
3
62
256
370
-1
6
ByLayer
10
-2.77141200576
20
-2.40915170163
30
0.0
11
-2.52862698606
21
-2.27678596477
31
0.0
0
LINE
5
90
100
AcDbEntity
100
AcDbLine
8
3
62
256
370
-1
6
ByLayer
10
-2.52862698606
20
-2.27678596477
30
0.0
11
-2.32426507077
21
-2.16741224267
31
0.0
0
LINE
5
91
100
AcDbEntity
100
AcDbLine
8
3
62
256
370
-1
6
ByLayer
10
-2.32426507077
20
-2.16741224267
30
0.0
11
-2.15007292598
21
-2.07630128964
31
0.0
0
LINE
5
92
100
AcDbEntity
100
AcDbLine
8
3
62
256
370
-1
6
ByLayer
10
-2.15007292598
20
-2.07630128964
30
0.0
11
-2.0
21
-2.0
31
0.0
0
LINE
5
93
100
AcDbEntity
100
AcDbLine
8
3
62
256
370
-1
6
ByLayer
10
-2.0
20
-2.0
30
0.0
11
-1.86951007837
21
-1.93593435809
31
0.0
0
LINE
5
94
100
AcDbEntity
100
AcDbLine
8
3
62
256
370
-1
6
ByLayer
10
-1.86951007837
20
-1.93593435809
30
0.0
11
-1.75513582747
21
-1.88215274322
31
0.0
0
LINE
5
95
100
AcDbEntity
100
AcDbLine
8
3
62
256
370
-1
6
ByLayer
10
-1.75513582747
20
-1.88215274322
30
0.0
11
-1.65418183057
21
-1.83715504283
31
0.0
0
LINE
5
96
100
AcDbEntity
100
AcDbLine
8
3
62
256
370
-1
6
ByLayer
10
-1.65418183057
20
-1.83715504283
30
0.0
11
-1.5645214082
21
-1.79977600042
31
0.0
0
LINE
5
97
100
AcDbEntity
100
AcDbLine
8
3
62
256
370
-1
6
ByLayer
10
-1.5645214082
20
-1.79977600042
30
0.0
11
-1.48445439794
21
-1.76910386178
31
0.0
0
LINE
5
98
100
AcDbEntity
100
AcDbLine
8
3
62
256
370
-1
6
ByLayer
10
-1.48445439794
20
-1.76910386178
30
0.0
11
-1.41260557351
21
-1.74442260603
31
0.0
0
LINE
5
99
100
AcDbEntity
100
AcDbLine
8
3
62
256
370
-1
6
ByLayer
10
-1.41260557351
20
-1.74442260603
30
0.0
11
-1.34785077234
21
-1.7251703175
31
0.0
0
LINE
5
100
100
AcDbEntity
100
AcDbLine
8
3
62
256
370
-1
6
ByLayer
10
-1.34785077234
20
-1.7251703175
30
0.0
11
-1.28926229829
21
-1.71090885666
31
0.0
0
LINE
5
101
100
AcDbEntity
100
AcDbLine
8
3
62
256
370
-1
6
ByLayer
10
-1.28926229829
20
-1.71090885666
30
0.0
11
-1.2360679775
21
-1.7013016167
31
0.0
0
LINE
5
102
100
AcDbEntity
100
AcDbLine
8
3
62
256
370
-1
6
ByLayer
10
-1.2360679775
20
-1.7013016167
30
0.0
11
-1.1876200444
21
-1.69609719917
31
0.0
0
LINE
5
103
100
AcDbEntity
100
AcDbLine
8
3
62
256
370
-1
6
ByLayer
10
-1.1876200444
20
-1.69609719917
30
0.0
11
-1.14337121116
21
-1.69511753018
31
0.0
0
LINE
5
104
100
AcDbEntity
100
AcDbLine
8
3
62
256
370
-1
6
ByLayer
10
-1.14337121116
20
-1.69511753018
30
0.0
11
-1.10285605819
21
-1.69824940414
31
0.0
0
LINE
5
105
100
AcDbEntity
100
AcDbLine
8
3
62
256
370
-1
6
ByLayer
10
-1.10285605819
20
-1.69824940414
30
0.0
11
-1.06567641537
21
-1.70543876431
31
0.0
0
LINE
5
106
100
AcDbEntity
100
AcDbLine
8
3
62
256
370
-1
6
ByLayer
10
-1.06567641537
20
-1.70543876431
30
0.0
11
-1.0314897707
21
-1.71668726163
31
0.0
0
LINE
5
107
100
AcDbEntity
100
AcDbLine
8
3
62
256
370
-1
6
ByLayer
10
-1.0314897707
20
-1.71668726163
30
0.0
11
-1.0
21
-1.73205080757
31
0.0
0
LINE
5
108
100
AcDbEntity
100
AcDbLine
8
3
62
256
370
-1
6
ByLayer
10
-1.0
20
-1.73205080757
30
0.0
11
-0.970949893577
21
-1.75163997599
31
0.0
0
LINE
5
109
100
AcDbEntity
100
AcDbLine
8
3
62
256
370
-1
6
ByLayer
10
-0.970949893577
20
-1.75163997599
30
0.0
11
-0.944115086802
21
-1.77562223008
31
0.0
0
LINE
5
110
100
AcDbEntity
100
AcDbLine
8
3
62
256
370
-1
6
ByLayer
10
-0.944115086802
20
-1.77562223008
30
0.0
11
-0.919299096851
21
-1.80422606518
31
0.0
0
LINE
5
111
100
AcDbEntity
100
AcDbLine
8
3
62
256
370
-1
6
ByLayer
10
-0.919299096851
20
-1.80422606518
30
0.0
11
-0.89632923796
21
-1.83774727991
31
0.0
0
LINE
5
112
100
AcDbEntity
100
AcDbLine
8
3
62
256
370
-1
6
ByLayer
10
-0.89632923796
20
-1.83774727991
30
0.0
11
-0.875053239573
21
-1.87655772808
31
0.0
0
LINE
5
113
100
AcDbEntity
100
AcDbLine
8
3
62
256
370
-1
6
ByLayer
10
-0.875053239573
20
-1.87655772808
30
0.0
11
-0.855336430815
21
-1.92111707767
31
0.0
0
LINE
5
114
100
AcDbEntity
100
AcDbLine
8
3
62
256
370
-1
6
ByLayer
10
-0.855336430815
20
-1.92111707767
30
0.0
11
-0.837059384279
21
-1.97198833079
31
0.0
0
LINE
5
115
100
AcDbEntity
100
AcDbLine
8
3
62
256
370
-1
6
ByLayer
10
-0.837059384279
20
-1.97198833079
30
0.0
11
-0.820115934641
21
-2.02985816811
31
0.0
0
LINE
5
116
100
AcDbEntity
100
AcDbLine
8
3
62
256
370
-1
6
ByLayer
10
-0.820115934641
20
-2.02985816811
30
0.0
11
-0.804411505004
21
-2.0955636152
31
0.0
0
LINE
5
117
100
AcDbEntity
100
AcDbLine
8
3
62
256
370
-1
6
ByLayer
10
-0.804411505004
20
-2.0955636152
30
0.0
11
-0.789861687269
21
-2.17012715026
31
0.0
0
LINE
5
118
100
AcDbEntity
100
AcDbLine
8
3
62
256
370
-1
6
ByLayer
10
-0.789861687269
20
-2.17012715026
30
0.0
11
-0.776391033382
21
-2.25480328448
31
0.0
0
LINE
5
119
100
AcDbEntity
100
AcDbLine
8
3
62
256
370
-1
6
ByLayer
10
-0.776391033382
20
-2.25480328448
30
0.0
11
-0.7639320225
21
-2.35114100917
31
0.0
0
LINE
5
120
100
AcDbEntity
100
AcDbLine
8
3
62
256
370
-1
6
ByLayer
10
-0.7639320225
20
-2.35114100917
30
0.0
11
-0.752424175697
21
-2.46106858529
31
0.0
0
LINE
5
121
100
AcDbEntity
100
AcDbLine
8
3
62
256
370
-1
6
ByLayer
10
-0.752424175697
20
-2.46106858529
30
0.0
11
-0.741813294979
21
-2.58701039954
31
0.0
0
LINE
5
122
100
AcDbEntity
100
AcDbLine
8
3
62
256
370
-1
6
ByLayer
10
-0.741813294979
20
-2.58701039954
30
0.0
11
-0.732050807569
21
-2.73205080757
31
0.0
0
LINE
5
123
100
AcDbEntity
100
AcDbLine
8
3
62
256
370
-1
6
ByLayer
10
-0.732050807569
20
-2.73205080757
30
0.0
11
-0.723093199745
21
-2.90016841871
31
0.0
0
LINE
5
124
100
AcDbEntity
100
AcDbLine
8
3
62
256
370
-1
6
ByLayer
10
-0.723093199745
20
-2.90016841871
30
0.0
11
-0.714901527245
21
-3.09657871775
31
0.0
0
LINE
5
125
100
AcDbEntity
100
AcDbLine
8
3
62
256
370
-1
6
ByLayer
10
-0.714901527245
20
-3.09657871775
30
0.0
11
-0.70744099144
21
-3.32824818901
31
0.0
0
LINE
5
126
100
AcDbEntity
100
AcDbLine
8
3
62
256
370
-1
6
ByLayer
10
-0.70744099144
20
-3.32824818901
30
0.0
11
-0.700680572303
21
-3.60468905216
31
0.0
0
LINE
5
127
100
AcDbEntity
100
AcDbLine
8
3
62
256
370
-1
6
ByLayer
10
-0.700680572303
20
-3.60468905216
30
0.0
11
-0.694592710668
21
-3.93923101205
31
0.0
0
LINE
5
128
100
AcDbEntity
100
AcDbLine
8
3
62
256
370
-1
6
ByLayer
10
-0.694592710668
20
-3.93923101205
30
0.0
11
-0.689153033511
21
-4.35114100917
31
0.0
0
LINE
5
129
100
AcDbEntity
100
AcDbLine
8
3
62
256
370
-1
6
ByLayer
10
-0.689153033511
20
-4.35114100917
30
0.0
11
-0.684340117023
21
-4.86933294848
31
0.0
0
LINE
5
130
100
AcDbEntity
100
AcDbLine
8
3
62
256
370
-1
6
ByLayer
10
-0.684340117023
20
-4.86933294848
30
0.0
11
-0.680135283079
21
-5.53925736328
31
0.0
0
LINE
5
131
100
AcDbEntity
100
AcDbLine
8
3
62
256
370
-1
6
ByLayer
10
-0.680135283079
20
-5.53925736328
30
0.0
11
-0.676522425435
21
-6.43668091705
31
0.0
0
LINE
5
132
100
AcDbEntity
100
AcDbLine
8
3
62
256
370
-1
6
ByLayer
10
-0.676522425435
20
-6.43668091705
30
0.0
11
-0.673487862635
21
-7.69800149519
31
0.0
0
LINE
5
133
100
AcDbEntity
100
AcDbLine
8
3
62
256
370
-1
6
ByLayer
10
-0.673487862635
20
-7.69800149519
30
0.0
11
-0.671020215071
21
-9.59603614723
31
0.0
0
LINE
5
134
100
AcDbEntity
100
AcDbLine
8
3
62
256
370
-1
6
ByLayer
10
-0.671020215071
20
-9.59603614723
30
0.0
11
-0.669110304171
21
-12.7673851731
31
0.0
0
LINE
5
135
100
AcDbEntity
100
AcDbLine
8
3
62
256
370
-1
6
ByLayer
10
-0.669110304171
20
-12.7673851731
30
0.0
11
-0.667751072034
21
-19.1218888287
31
0.0
0
LINE
5
136
100
AcDbEntity
100
AcDbLine
8
3
62
256
370
-1
6
ByLayer
10
-0.667751072034
20
-19.1218888287
30
0.0
11
-0.666937520212
21
-38.208824943
31
0.0
0
LINE
5
137
100
AcDbEntity
100
AcDbLine
8
3
62
256
370
-1
6
ByLayer
10
-0.666937520212
20
-38.208824943
30
0.0
11
-0.666666666667
21
-1.08878524856e+16
31
0.0
0
LINE
5
138
100
AcDbEntity
100
AcDbLine
8
3
62
256
370
-1
6
ByLayer
10
-0.666666666667
20
-1.08878524856e+16
30
0.0
11
-0.666937520212
21
38.208824943
31
0.0
0
LINE
5
139
100
AcDbEntity
100
AcDbLine
8
3
62
256
370
-1
6
ByLayer
10
-0.666937520212
20
38.208824943
30
0.0
11
-0.667751072034
21
19.1218888287
31
0.0
0
LINE
5
140
100
AcDbEntity
100
AcDbLine
8
3
62
256
370
-1
6
ByLayer
10
-0.667751072034
20
19.1218888287
30
0.0
11
-0.669110304171
21
12.7673851731
31
0.0
0
LINE
5
141
100
AcDbEntity
100
AcDbLine
8
3
62
256
370
-1
6
ByLayer
10
-0.669110304171
20
12.7673851731
30
0.0
11
-0.671020215071
21
9.59603614723
31
0.0
0
LINE
5
142
100
AcDbEntity
100
AcDbLine
8
3
62
256
370
-1
6
ByLayer
10
-0.671020215071
20
9.59603614723
30
0.0
11
-0.673487862635
21
7.69800149519
31
0.0
0
LINE
5
143
100
AcDbEntity
100
AcDbLine
8
3
62
256
370
-1
6
ByLayer
10
-0.673487862635
20
7.69800149519
30
0.0
11
-0.676522425435
21
6.43668091705
31
0.0
0
LINE
5
144
100
AcDbEntity
100
AcDbLine
8
3
62
256
370
-1
6
ByLayer
10
-0.676522425435
20
6.43668091705
30
0.0
11
-0.680135283079
21
5.53925736328
31
0.0
0
LINE
5
145
100
AcDbEntity
100
AcDbLine
8
3
62
256
370
-1
6
ByLayer
10
-0.680135283079
20
5.53925736328
30
0.0
11
-0.684340117023
21
4.86933294848
31
0.0
0
LINE
5
146
100
AcDbEntity
100
AcDbLine
8
3
62
256
370
-1
6
ByLayer
10
-0.684340117023
20
4.86933294848
30
0.0
11
-0.689153033511
21
4.35114100917
31
0.0
0
LINE
5
147
100
AcDbEntity
100
AcDbLine
8
3
62
256
370
-1
6
ByLayer
10
-0.689153033511
20
4.35114100917
30
0.0
11
-0.694592710668
21
3.93923101205
31
0.0
0
LINE
5
148
100
AcDbEntity
100
AcDbLine
8
3
62
256
370
-1
6
ByLayer
10
-0.694592710668
20
3.93923101205
30
0.0
11
-0.700680572303
21
3.60468905216
31
0.0
0
LINE
5
149
100
AcDbEntity
100
AcDbLine
8
3
62
256
370
-1
6
ByLayer
10
-0.700680572303
20
3.60468905216
30
0.0
11
-0.70744099144
21
3.32824818901
31
0.0
0
LINE
5
150
100
AcDbEntity
100
AcDbLine
8
3
62
256
370
-1
6
ByLayer
10
-0.70744099144
20
3.32824818901
30
0.0
11
-0.714901527245
21
3.09657871775
31
0.0
0
LINE
5
151
100
AcDbEntity
100
AcDbLine
8
3
62
256
370
-1
6
ByLayer
10
-0.714901527245
20
3.09657871775
30
0.0
11
-0.723093199745
21
2.90016841871
31
0.0
0
LINE
5
152
100
AcDbEntity
100
AcDbLine
8
3
62
256
370
-1
6
ByLayer
10
-0.723093199745
20
2.90016841871
30
0.0
11
-0.732050807569
21
2.73205080757
31
0.0
0
LINE
5
153
100
AcDbEntity
100
AcDbLine
8
3
62
256
370
-1
6
ByLayer
10
-0.732050807569
20
2.73205080757
30
0.0
11
-0.741813294979
21
2.58701039954
31
0.0
0
LINE
5
154
100
AcDbEntity
100
AcDbLine
8
3
62
256
370
-1
6
ByLayer
10
-0.741813294979
20
2.58701039954
30
0.0
11
-0.752424175697
21
2.46106858529
31
0.0
0
LINE
5
155
100
AcDbEntity
100
AcDbLine
8
3
62
256
370
-1
6
ByLayer
10
-0.752424175697
20
2.46106858529
30
0.0
11
-0.7639320225
21
2.35114100917
31
0.0
0
LINE
5
156
100
AcDbEntity
100
AcDbLine
8
3
62
256
370
-1
6
ByLayer
10
-0.7639320225
20
2.35114100917
30
0.0
11
-0.776391033382
21
2.25480328448
31
0.0
0
LINE
5
157
100
AcDbEntity
100
AcDbLine
8
3
62
256
370
-1
6
ByLayer
10
-0.776391033382
20
2.25480328448
30
0.0
11
-0.789861687269
21
2.17012715026
31
0.0
0
LINE
5
158
100
AcDbEntity
100
AcDbLine
8
3
62
256
370
-1
6
ByLayer
10
-0.789861687269
20
2.17012715026
30
0.0
11
-0.804411505004
21
2.0955636152
31
0.0
0
LINE
5
159
100
AcDbEntity
100
AcDbLine
8
3
62
256
370
-1
6
ByLayer
10
-0.804411505004
20
2.0955636152
30
0.0
11
-0.820115934641
21
2.02985816811
31
0.0
0
LINE
5
160
100
AcDbEntity
100
AcDbLine
8
3
62
256
370
-1
6
ByLayer
10
-0.820115934641
20
2.02985816811
30
0.0
11
-0.837059384279
21
1.97198833079
31
0.0
0
LINE
5
161
100
AcDbEntity
100
AcDbLine
8
3
62
256
370
-1
6
ByLayer
10
-0.837059384279
20
1.97198833079
30
0.0
11
-0.855336430815
21
1.92111707767
31
0.0
0
LINE
5
162
100
AcDbEntity
100
AcDbLine
8
3
62
256
370
-1
6
ByLayer
10
-0.855336430815
20
1.92111707767
30
0.0
11
-0.875053239573
21
1.87655772808
31
0.0
0
LINE
5
163
100
AcDbEntity
100
AcDbLine
8
3
62
256
370
-1
6
ByLayer
10
-0.875053239573
20
1.87655772808
30
0.0
11
-0.89632923796
21
1.83774727991
31
0.0
0
LINE
5
164
100
AcDbEntity
100
AcDbLine
8
3
62
256
370
-1
6
ByLayer
10
-0.89632923796
20
1.83774727991
30
0.0
11
-0.919299096851
21
1.80422606518
31
0.0
0
LINE
5
165
100
AcDbEntity
100
AcDbLine
8
3
62
256
370
-1
6
ByLayer
10
-0.919299096851
20
1.80422606518
30
0.0
11
-0.944115086802
21
1.77562223008
31
0.0
0
LINE
5
166
100
AcDbEntity
100
AcDbLine
8
3
62
256
370
-1
6
ByLayer
10
-0.944115086802
20
1.77562223008
30
0.0
11
-0.970949893577
21
1.75163997599
31
0.0
0
LINE
5
167
100
AcDbEntity
100
AcDbLine
8
3
62
256
370
-1
6
ByLayer
10
-0.970949893577
20
1.75163997599
30
0.0
11
-1.0
21
1.73205080757
31
0.0
0
LINE
5
168
100
AcDbEntity
100
AcDbLine
8
3
62
256
370
-1
6
ByLayer
10
-1.0
20
1.73205080757
30
0.0
11
-1.0314897707
21
1.71668726163
31
0.0
0
LINE
5
169
100
AcDbEntity
100
AcDbLine
8
3
62
256
370
-1
6
ByLayer
10
-1.0314897707
20
1.71668726163
30
0.0
11
-1.06567641537
21
1.70543876431
31
0.0
0
LINE
5
170
100
AcDbEntity
100
AcDbLine
8
3
62
256
370
-1
6
ByLayer
10
-1.06567641537
20
1.70543876431
30
0.0
11
-1.10285605819
21
1.69824940414
31
0.0
0
LINE
5
171
100
AcDbEntity
100
AcDbLine
8
3
62
256
370
-1
6
ByLayer
10
-1.10285605819
20
1.69824940414
30
0.0
11
-1.14337121116
21
1.69511753018
31
0.0
0
LINE
5
172
100
AcDbEntity
100
AcDbLine
8
3
62
256
370
-1
6
ByLayer
10
-1.14337121116
20
1.69511753018
30
0.0
11
-1.1876200444
21
1.69609719917
31
0.0
0
LINE
5
173
100
AcDbEntity
100
AcDbLine
8
3
62
256
370
-1
6
ByLayer
10
-1.1876200444
20
1.69609719917
30
0.0
11
-1.2360679775
21
1.7013016167
31
0.0
0
LINE
5
174
100
AcDbEntity
100
AcDbLine
8
3
62
256
370
-1
6
ByLayer
10
-1.2360679775
20
1.7013016167
30
0.0
11
-1.28926229829
21
1.71090885666
31
0.0
0
LINE
5
175
100
AcDbEntity
100
AcDbLine
8
3
62
256
370
-1
6
ByLayer
10
-1.28926229829
20
1.71090885666
30
0.0
11
-1.34785077234
21
1.7251703175
31
0.0
0
LINE
5
176
100
AcDbEntity
100
AcDbLine
8
3
62
256
370
-1
6
ByLayer
10
-1.34785077234
20
1.7251703175
30
0.0
11
-1.41260557351
21
1.74442260603
31
0.0
0
LINE
5
177
100
AcDbEntity
100
AcDbLine
8
3
62
256
370
-1
6
ByLayer
10
-1.41260557351
20
1.74442260603
30
0.0
11
-1.48445439794
21
1.76910386178
31
0.0
0
LINE
5
178
100
AcDbEntity
100
AcDbLine
8
3
62
256
370
-1
6
ByLayer
10
-1.48445439794
20
1.76910386178
30
0.0
11
-1.5645214082
21
1.79977600042
31
0.0
0
LINE
5
179
100
AcDbEntity
100
AcDbLine
8
3
62
256
370
-1
6
ByLayer
10
-1.5645214082
20
1.79977600042
30
0.0
11
-1.65418183057
21
1.83715504283
31
0.0
0
LINE
5
180
100
AcDbEntity
100
AcDbLine
8
3
62
256
370
-1
6
ByLayer
10
-1.65418183057
20
1.83715504283
30
0.0
11
-1.75513582747
21
1.88215274322
31
0.0
0
LINE
5
181
100
AcDbEntity
100
AcDbLine
8
3
62
256
370
-1
6
ByLayer
10
-1.75513582747
20
1.88215274322
30
0.0
11
-1.86951007837
21
1.93593435809
31
0.0
0
LINE
5
182
100
AcDbEntity
100
AcDbLine
8
3
62
256
370
-1
6
ByLayer
10
-1.86951007837
20
1.93593435809
30
0.0
11
-2.0
21
2.0
31
0.0
0
LINE
5
183
100
AcDbEntity
100
AcDbLine
8
3
62
256
370
-1
6
ByLayer
10
-2.0
20
2.0
30
0.0
11
-2.15007292598
21
2.07630128964
31
0.0
0
LINE
5
184
100
AcDbEntity
100
AcDbLine
8
3
62
256
370
-1
6
ByLayer
10
-2.15007292598
20
2.07630128964
30
0.0
11
-2.32426507077
21
2.16741224267
31
0.0
0
LINE
5
185
100
AcDbEntity
100
AcDbLine
8
3
62
256
370
-1
6
ByLayer
10
-2.32426507077
20
2.16741224267
30
0.0
11
-2.52862698606
21
2.27678596477
31
0.0
0
LINE
5
186
100
AcDbEntity
100
AcDbLine
8
3
62
256
370
-1
6
ByLayer
10
-2.52862698606
20
2.27678596477
30
0.0
11
-2.77141200576
21
2.40915170163
31
0.0
0
LINE
5
187
100
AcDbEntity
100
AcDbLine
8
3
62
256
370
-1
6
ByLayer
10
-2.77141200576
20
2.40915170163
30
0.0
11
-3.06417777248
21
2.57115043875
31
0.0
0
LINE
5
188
100
AcDbEntity
100
AcDbLine
8
3
62
256
370
-1
6
ByLayer
10
-3.06417777248
20
2.57115043875
30
0.0
11
-3.42362213263
21
2.7723945387
31
0.0
0
LINE
5
189
100
AcDbEntity
100
AcDbLine
8
3
62
256
370
-1
6
ByLayer
10
-3.42362213263
20
2.7723945387
30
0.0
11
-3.87479597436
21
3.02732240041
31
0.0
0
LINE
5
190
100
AcDbEntity
100
AcDbLine
8
3
62
256
370
-1
6
ByLayer
10
-3.87479597436
20
3.02732240041
30
0.0
11
-4.45706995316
21
3.3586431148
31
0.0
0
LINE
5
191
100
AcDbEntity
100
AcDbLine
8
3
62
256
370
-1
6
ByLayer
10
-4.45706995316
20
3.3586431148
30
0.0
11
-5.2360679775
21
3.80422606518
31
0.0
0
LINE
5
192
100
AcDbEntity
100
AcDbLine
8
3
62
256
370
-1
6
ByLayer
10
-5.2360679775
20
3.80422606518
30
0.0
11
-6.32992092189
21
4.43225834578
31
0.0
0
LINE
5
193
100
AcDbEntity
100
AcDbLine
8
3
62
256
370
-1
6
ByLayer
10
-6.32992092189
20
4.43225834578
30
0.0
11
-7.9749009716
21
5.37913862632
31
0.0
0
LINE
5
194
100
AcDbEntity
100
AcDbLine
8
3
62
256
370
-1
6
ByLayer
10
-7.9749009716
20
5.37913862632
30
0.0
11
-10.7223247477
21
6.96315910787
31
0.0
0
LINE
5
195
100
AcDbEntity
100
AcDbLine
8
3
62
256
370
-1
6
ByLayer
10
-10.7223247477
20
6.96315910787
30
0.0
11
-16.226165958
21
10.1392338061
31
0.0
0
LINE
5
196
100
AcDbEntity
100
AcDbLine
8
3
62
256
370
-1
6
ByLayer
10
-16.226165958
20
10.1392338061
30
0.0
11
-32.7563442893
21
19.6819973068
31
0.0
0
LINE
5
197
100
AcDbEntity
100
AcDbLine
8
3
62
256
370
-1
6
ByLayer
10
-32.7563442893
20
19.6819973068
30
0.0
11
-5.65749410711e+15
21
3.26635574568e+15
31
0.0
0
LINE
5
198
100
AcDbEntity
100
AcDbLine
8
3
62
256
370
-1
6
ByLayer
10
-5.65749410711e+15
20
3.26635574568e+15
30
0.0
11
33.4232818095
21
-18.5268276363
31
0.0
0
LINE
5
199
100
AcDbEntity
100
AcDbLine
8
3
62
256
370
-1
6
ByLayer
10
33.4232818095
20
-18.5268276363
30
0.0
11
16.89391703
21
-8.98265502256
31
0.0
0
LINE
5
200
100
AcDbEntity
100
AcDbLine
8
3
62
256
370
-1
6
ByLayer
10
16.89391703
20
-8.98265502256
30
0.0
11
11.3914350519
21
-5.80422606518
31
0.0
0
LINE
5
201
100
AcDbEntity
100
AcDbLine
8
3
62
256
370
-1
6
ByLayer
10
11.3914350519
20
-5.80422606518
30
0.0
11
8.64592118667
21
-4.21689752091
31
0.0
0
LINE
5
202
100
AcDbEntity
100
AcDbLine
8
3
62
256
370
-1
6
ByLayer
10
8.64592118667
20
-4.21689752091
30
0.0
11
7.00340878452
21
-3.26574314941
31
0.0
0
LINE
5
203
100
AcDbEntity
100
AcDbLine
8
3
62
256
370
-1
6
ByLayer
10
7.00340878452
20
-3.26574314941
30
0.0
11
5.91259040294
21
-2.63245485187
31
0.0
0
LINE
5
204
100
AcDbEntity
100
AcDbLine
8
3
62
256
370
-1
6
ByLayer
10
5.91259040294
20
-2.63245485187
30
0.0
11
5.13720523624
21
-2.18061424848
31
0.0
0
LINE
5
205
100
AcDbEntity
100
AcDbLine
8
3
62
256
370
-1
6
ByLayer
10
5.13720523624
20
-2.18061424848
30
0.0
11
4.55913609138
21
-1.84201054807
31
0.0
0
LINE
5
206
100
AcDbEntity
100
AcDbLine
8
3
62
256
370
-1
6
ByLayer
10
4.55913609138
20
-1.84201054807
30
0.0
11
4.11277516614
21
-1.57874647047
31
0.0
0
LINE
5
207
100
AcDbEntity
100
AcDbLine
8
3
62
256
370
-1
6
ByLayer
10
4.11277516614
20
-1.57874647047
30
0.0
11
3.75877048314
21
-1.3680805733
31
0.0
0
LINE
5
208
100
AcDbEntity
100
AcDbLine
8
3
62
256
370
-1
6
ByLayer
10
3.75877048314
20
-1.3680805733
30
0.0
11
3.47209257806
21
-1.19553735052
31
0.0
0
LINE
5
209
100
AcDbEntity
100
AcDbLine
8
3
62
256
370
-1
6
ByLayer
10
3.47209257806
20
-1.19553735052
30
0.0
11
3.2360679775
21
-1.05146222424
31
0.0
0
LINE
5
210
100
AcDbEntity
100
AcDbLine
8
3
62
256
370
-1
6
ByLayer
10
3.2360679775
20
-1.05146222424
30
0.0
11
3.03916659801
21
-0.929166475076
31
0.0
0
LINE
5
211
100
AcDbEntity
100
AcDbLine
8
3
62
256
370
-1
6
ByLayer
10
3.03916659801
20
-0.929166475076
30
0.0
11
2.87316612573
21
-0.82386712907
31
0.0
0
LINE
5
212
100
AcDbEntity
100
AcDbLine
8
3
62
256
370
-1
6
ByLayer
10
2.87316612573
20
-0.82386712907
30
0.0
11
2.73205080757
21
-0.732050807569
31
0.0
0
LINE
5
213
100
AcDbEntity
100
AcDbLine
8
3
62
256
370
-1
6
ByLayer
10
2.73205080757
20
-0.732050807569
30
0.0
11
2.61132337335
21
-0.651076041455
31
0.0
0
LINE
5
214
100
AcDbEntity
100
AcDbLine
8
3
62
256
370
-1
6
ByLayer
10
2.61132337335
20
-0.651076041455
30
0.0
11
2.50756000316
21
-0.578915842069
31
0.0
0
LINE
5
215
100
AcDbEntity
100
AcDbLine
8
3
62
256
370
-1
6
ByLayer
10
2.50756000316
20
-0.578915842069
30
0.0
11
2.41811385307
21
-0.513985966335
31
0.0
0
LINE
5
216
100
AcDbEntity
100
AcDbLine
8
3
62
256
370
-1
6
ByLayer
10
2.41811385307
20
-0.513985966335
30
0.0
11
2.34091244159
21
-0.45502728406
31
0.0
0
LINE
5
217
100
AcDbEntity
100
AcDbLine
8
3
62
256
370
-1
6
ByLayer
10
2.34091244159
20
-0.45502728406
30
0.0
11
2.27431608521
21
-0.401023288481
31
0.0
0
LINE
5
218
100
AcDbEntity
100
AcDbLine
8
3
62
256
370
-1
6
ByLayer
10
2.27431608521
20
-0.401023288481
30
0.0
11
2.21701707851
21
-0.35114100917
31
0.0
0
LINE
5
219
100
AcDbEntity
100
AcDbLine
8
3
62
256
370
-1
6
ByLayer
10
2.21701707851
20
-0.35114100917
30
0.0
11
2.16796670698
21
-0.304687850606
31
0.0
0
LINE
5
220
100
AcDbEntity
100
AcDbLine
8
3
62
256
370
-1
6
ByLayer
10
2.16796670698
20
-0.304687850606
30
0.0
11
2.12632168257
21
-0.261079474133
31
0.0
0
LINE
5
221
100
AcDbEntity
100
AcDbLine
8
3
62
256
370
-1
6
ByLayer
10
2.12632168257
20
-0.261079474133
30
0.0
11
2.09140440832
21
-0.219815460967
31
0.0
0
LINE
5
222
100
AcDbEntity
100
AcDbLine
8
3
62
256
370
-1
6
ByLayer
10
2.09140440832
20
-0.219815460967
30
0.0
11
2.06267328397
21
-0.180460528905
31
0.0
0
LINE
5
223
100
AcDbEntity
100
AcDbLine
8
3
62
256
370
-1
6
ByLayer
10
2.06267328397
20
-0.180460528905
30
0.0
11
2.03970044912
21
-0.142629749727
31
0.0
0
LINE
5
224
100
AcDbEntity
100
AcDbLine
8
3
62
256
370
-1
6
ByLayer
10
2.03970044912
20
-0.142629749727
30
0.0
11
2.02215515504
21
-0.105976661041
31
0.0
0
LINE
5
225
100
AcDbEntity
100
AcDbLine
8
3
62
256
370
-1
6
ByLayer
10
2.02215515504
20
-0.105976661041
30
0.0
11
2.00979150218
21
-0.0701834657739
31
0.0
0
LINE
5
226
100
AcDbEntity
100
AcDbLine
8
3
62
256
370
-1
6
ByLayer
10
2.00979150218
20
-0.0701834657739
30
0.0
11
2.00243966428
21
-0.0349527143548
31
0.0
0
LINE
5
227
100
AcDbEntity
100
AcDbLine
8
3
62
256
370
-1
6
ByLayer
10
2.00243966428
20
-0.0349527143548
30
0.0
11
2.0
21
-2.44921270764e-16
31
0.0
0
LINE
5
228
100
AcDbEntity
100
AcDbLine
8
3
62
256
370
-1
6
ByLayer
10
2.0
20
-2.44921270764e-16
30
0.0
11
2.00243966428
21
0.0349527143548
31
0.0
0
LINE
5
229
100
AcDbEntity
100
AcDbLine
8
3
62
256
370
-1
6
ByLayer
10
2.00243966428
20
0.0349527143548
30
0.0
11
2.00979150218
21
0.0701834657739
31
0.0
0
LINE
5
230
100
AcDbEntity
100
AcDbLine
8
3
62
256
370
-1
6
ByLayer
10
2.00979150218
20
0.0701834657739
30
0.0
11
2.02215515504
21
0.105976661041
31
0.0
0
LINE
5
231
100
AcDbEntity
100
AcDbLine
8
3
62
256
370
-1
6
ByLayer
10
2.02215515504
20
0.105976661041
30
0.0
11
2.03970044912
21
0.142629749727
31
0.0
0
LINE
5
232
100
AcDbEntity
100
AcDbLine
8
3
62
256
370
-1
6
ByLayer
10
2.03970044912
20
0.142629749727
30
0.0
11
2.06267328397
21
0.180460528905
31
0.0
0
LINE
5
233
100
AcDbEntity
100
AcDbLine
8
3
62
256
370
-1
6
ByLayer
10
2.06267328397
20
0.180460528905
30
0.0
11
2.09140440832
21
0.219815460967
31
0.0
0
LINE
5
234
100
AcDbEntity
100
AcDbLine
8
3
62
256
370
-1
6
ByLayer
10
2.09140440832
20
0.219815460967
30
0.0
11
2.12632168257
21
0.261079474133
31
0.0
0
LINE
5
235
100
AcDbEntity
100
AcDbLine
8
3
62
256
370
-1
6
ByLayer
10
2.12632168257
20
0.261079474133
30
0.0
11
2.16796670698
21
0.304687850606
31
0.0
0
LINE
5
236
100
AcDbEntity
100
AcDbLine
8
3
62
256
370
-1
6
ByLayer
10
2.16796670698
20
0.304687850606
30
0.0
11
2.21701707851
21
0.35114100917
31
0.0
0
LINE
5
237
100
AcDbEntity
100
AcDbLine
8
3
62
256
370
-1
6
ByLayer
10
2.21701707851
20
0.35114100917
30
0.0
11
2.27431608521
21
0.401023288481
31
0.0
0
LINE
5
238
100
AcDbEntity
100
AcDbLine
8
3
62
256
370
-1
6
ByLayer
10
2.27431608521
20
0.401023288481
30
0.0
11
2.34091244159
21
0.45502728406
31
0.0
0
LINE
5
239
100
AcDbEntity
100
AcDbLine
8
3
62
256
370
-1
6
ByLayer
10
2.34091244159
20
0.45502728406
30
0.0
11
2.41811385307
21
0.513985966335
31
0.0
0
LINE
5
240
100
AcDbEntity
100
AcDbLine
8
3
62
256
370
-1
6
ByLayer
10
2.41811385307
20
0.513985966335
30
0.0
11
2.50756000316
21
0.578915842069
31
0.0
0
LINE
5
241
100
AcDbEntity
100
AcDbLine
8
3
62
256
370
-1
6
ByLayer
10
2.50756000316
20
0.578915842069
30
0.0
11
2.61132337335
21
0.651076041455
31
0.0
0
LINE
5
242
100
AcDbEntity
100
AcDbLine
8
3
62
256
370
-1
6
ByLayer
10
2.61132337335
20
0.651076041455
30
0.0
11
2.73205080757
21
0.732050807569
31
0.0
0
LINE
5
243
100
AcDbEntity
100
AcDbLine
8
3
62
256
370
-1
6
ByLayer
10
2.73205080757
20
0.732050807569
30
0.0
11
2.87316612573
21
0.82386712907
31
0.0
0
LINE
5
244
100
AcDbEntity
100
AcDbLine
8
3
62
256
370
-1
6
ByLayer
10
2.87316612573
20
0.82386712907
30
0.0
11
3.03916659801
21
0.929166475076
31
0.0
0
LINE
5
245
100
AcDbEntity
100
AcDbLine
8
3
62
256
370
-1
6
ByLayer
10
3.03916659801
20
0.929166475076
30
0.0
11
3.2360679775
21
1.05146222424
31
0.0
0
LINE
5
246
100
AcDbEntity
100
AcDbLine
8
3
62
256
370
-1
6
ByLayer
10
3.2360679775
20
1.05146222424
30
0.0
11
3.47209257806
21
1.19553735052
31
0.0
0
LINE
5
247
100
AcDbEntity
100
AcDbLine
8
3
62
256
370
-1
6
ByLayer
10
3.47209257806
20
1.19553735052
30
0.0
11
3.75877048314
21
1.3680805733
31
0.0
0
LINE
5
248
100
AcDbEntity
100
AcDbLine
8
3
62
256
370
-1
6
ByLayer
10
3.75877048314
20
1.3680805733
30
0.0
11
4.11277516614
21
1.57874647047
31
0.0
0
LINE
5
249
100
AcDbEntity
100
AcDbLine
8
3
62
256
370
-1
6
ByLayer
10
4.11277516614
20
1.57874647047
30
0.0
11
4.55913609138
21
1.84201054807
31
0.0
0
LINE
5
250
100
AcDbEntity
100
AcDbLine
8
3
62
256
370
-1
6
ByLayer
10
4.55913609138
20
1.84201054807
30
0.0
11
5.13720523624
21
2.18061424848
31
0.0
0
LINE
5
251
100
AcDbEntity
100
AcDbLine
8
3
62
256
370
-1
6
ByLayer
10
5.13720523624
20
2.18061424848
30
0.0
11
5.91259040294
21
2.63245485187
31
0.0
0
LINE
5
252
100
AcDbEntity
100
AcDbLine
8
3
62
256
370
-1
6
ByLayer
10
5.91259040294
20
2.63245485187
30
0.0
11
7.00340878452
21
3.26574314941
31
0.0
0
LINE
5
253
100
AcDbEntity
100
AcDbLine
8
3
62
256
370
-1
6
ByLayer
10
7.00340878452
20
3.26574314941
30
0.0
11
8.64592118667
21
4.21689752091
31
0.0
0
LINE
5
254
100
AcDbEntity
100
AcDbLine
8
3
62
256
370
-1
6
ByLayer
10
8.64592118667
20
4.21689752091
30
0.0
11
11.3914350519
21
5.80422606518
31
0.0
0
LINE
5
255
100
AcDbEntity
100
AcDbLine
8
3
62
256
370
-1
6
ByLayer
10
11.3914350519
20
5.80422606518
30
0.0
11
16.89391703
21
8.98265502256
31
0.0
0
LINE
5
256
100
AcDbEntity
100
AcDbLine
8
3
62
256
370
-1
6
ByLayer
10
16.89391703
20
8.98265502256
30
0.0
11
33.4232818095
21
18.5268276363
31
0.0
0
LINE
5
257
100
AcDbEntity
100
AcDbLine
8
3
62
256
370
-1
6
ByLayer
10
33.4232818095
20
18.5268276363
30
0.0
11
-1.2851476367e+15
21
-7.41980333999e+14
31
0.0
0
LINE
5
258
100
AcDbEntity
100
AcDbLine
8
3
62
256
370
-1
6
ByLayer
10
-1.2851476367e+15
20
-7.41980333999e+14
30
0.0
11
-32.7563442893
21
-19.6819973068
31
0.0
0
LINE
5
259
100
AcDbEntity
100
AcDbLine
8
3
62
256
370
-1
6
ByLayer
10
-32.7563442893
20
-19.6819973068
30
0.0
11
-16.226165958
21
-10.1392338061
31
0.0
0
LINE
5
260
100
AcDbEntity
100
AcDbLine
8
3
62
256
370
-1
6
ByLayer
10
-16.226165958
20
-10.1392338061
30
0.0
11
-10.7223247477
21
-6.96315910787
31
0.0
0
LINE
5
261
100
AcDbEntity
100
AcDbLine
8
3
62
256
370
-1
6
ByLayer
10
-10.7223247477
20
-6.96315910787
30
0.0
11
-7.9749009716
21
-5.37913862632
31
0.0
0
LINE
5
262
100
AcDbEntity
100
AcDbLine
8
3
62
256
370
-1
6
ByLayer
10
-7.9749009716
20
-5.37913862632
30
0.0
11
-6.32992092189
21
-4.43225834578
31
0.0
0
LINE
5
263
100
AcDbEntity
100
AcDbLine
8
3
62
256
370
-1
6
ByLayer
10
-6.32992092189
20
-4.43225834578
30
0.0
11
-5.2360679775
21
-3.80422606518
31
0.0
0
LINE
5
264
100
AcDbEntity
100
AcDbLine
8
3
62
256
370
-1
6
ByLayer
10
-5.2360679775
20
-3.80422606518
30
0.0
11
-4.45706995316
21
-3.3586431148
31
0.0
0
LINE
5
265
100
AcDbEntity
100
AcDbLine
8
3
62
256
370
-1
6
ByLayer
10
-4.45706995316
20
-3.3586431148
30
0.0
11
-3.87479597436
21
-3.02732240041
31
0.0
0
LINE
5
266
100
AcDbEntity
100
AcDbLine
8
3
62
256
370
-1
6
ByLayer
10
-3.87479597436
20
-3.02732240041
30
0.0
11
-3.42362213263
21
-2.7723945387
31
0.0
0
LINE
5
267
100
AcDbEntity
100
AcDbLine
8
3
62
256
370
-1
6
ByLayer
10
-3.42362213263
20
-2.7723945387
30
0.0
11
-3.06417777248
21
-2.57115043875
31
0.0
0
LINE
5
268
100
AcDbEntity
100
AcDbLine
8
3
62
256
370
-1
6
ByLayer
10
-3.06417777248
20
-2.57115043875
30
0.0
11
-2.77141200576
21
-2.40915170163
31
0.0
0
LINE
5
269
100
AcDbEntity
100
AcDbLine
8
3
62
256
370
-1
6
ByLayer
10
-2.77141200576
20
-2.40915170163
30
0.0
11
-2.52862698606
21
-2.27678596477
31
0.0
0
LINE
5
270
100
AcDbEntity
100
AcDbLine
8
3
62
256
370
-1
6
ByLayer
10
-2.52862698606
20
-2.27678596477
30
0.0
11
-2.32426507077
21
-2.16741224267
31
0.0
0
LINE
5
271
100
AcDbEntity
100
AcDbLine
8
3
62
256
370
-1
6
ByLayer
10
-2.32426507077
20
-2.16741224267
30
0.0
11
-2.15007292598
21
-2.07630128964
31
0.0
0
LINE
5
272
100
AcDbEntity
100
AcDbLine
8
3
62
256
370
-1
6
ByLayer
10
-2.15007292598
20
-2.07630128964
30
0.0
11
-2.0
21
-2.0
31
0.0
0
LINE
5
273
100
AcDbEntity
100
AcDbLine
8
3
62
256
370
-1
6
ByLayer
10
-2.0
20
-2.0
30
0.0
11
-1.86951007837
21
-1.93593435809
31
0.0
0
LINE
5
274
100
AcDbEntity
100
AcDbLine
8
3
62
256
370
-1
6
ByLayer
10
-1.86951007837
20
-1.93593435809
30
0.0
11
-1.75513582747
21
-1.88215274322
31
0.0
0
LINE
5
275
100
AcDbEntity
100
AcDbLine
8
3
62
256
370
-1
6
ByLayer
10
-1.75513582747
20
-1.88215274322
30
0.0
11
-1.65418183057
21
-1.83715504283
31
0.0
0
LINE
5
276
100
AcDbEntity
100
AcDbLine
8
3
62
256
370
-1
6
ByLayer
10
-1.65418183057
20
-1.83715504283
30
0.0
11
-1.5645214082
21
-1.79977600042
31
0.0
0
LINE
5
277
100
AcDbEntity
100
AcDbLine
8
3
62
256
370
-1
6
ByLayer
10
-1.5645214082
20
-1.79977600042
30
0.0
11
-1.48445439794
21
-1.76910386178
31
0.0
0
LINE
5
278
100
AcDbEntity
100
AcDbLine
8
3
62
256
370
-1
6
ByLayer
10
-1.48445439794
20
-1.76910386178
30
0.0
11
-1.41260557351
21
-1.74442260603
31
0.0
0
LINE
5
279
100
AcDbEntity
100
AcDbLine
8
3
62
256
370
-1
6
ByLayer
10
-1.41260557351
20
-1.74442260603
30
0.0
11
-1.34785077234
21
-1.7251703175
31
0.0
0
LINE
5
280
100
AcDbEntity
100
AcDbLine
8
3
62
256
370
-1
6
ByLayer
10
-1.34785077234
20
-1.7251703175
30
0.0
11
-1.28926229829
21
-1.71090885666
31
0.0
0
LINE
5
281
100
AcDbEntity
100
AcDbLine
8
3
62
256
370
-1
6
ByLayer
10
-1.28926229829
20
-1.71090885666
30
0.0
11
-1.2360679775
21
-1.7013016167
31
0.0
0
LINE
5
282
100
AcDbEntity
100
AcDbLine
8
3
62
256
370
-1
6
ByLayer
10
-1.2360679775
20
-1.7013016167
30
0.0
11
-1.1876200444
21
-1.69609719917
31
0.0
0
LINE
5
283
100
AcDbEntity
100
AcDbLine
8
3
62
256
370
-1
6
ByLayer
10
-1.1876200444
20
-1.69609719917
30
0.0
11
-1.14337121116
21
-1.69511753018
31
0.0
0
LINE
5
284
100
AcDbEntity
100
AcDbLine
8
3
62
256
370
-1
6
ByLayer
10
-1.14337121116
20
-1.69511753018
30
0.0
11
-1.10285605819
21
-1.69824940414
31
0.0
0
LINE
5
285
100
AcDbEntity
100
AcDbLine
8
3
62
256
370
-1
6
ByLayer
10
-1.10285605819
20
-1.69824940414
30
0.0
11
-1.06567641537
21
-1.70543876431
31
0.0
0
LINE
5
286
100
AcDbEntity
100
AcDbLine
8
3
62
256
370
-1
6
ByLayer
10
-1.06567641537
20
-1.70543876431
30
0.0
11
-1.0314897707
21
-1.71668726163
31
0.0
0
LINE
5
287
100
AcDbEntity
100
AcDbLine
8
3
62
256
370
-1
6
ByLayer
10
-1.0314897707
20
-1.71668726163
30
0.0
11
-1.0
21
-1.73205080757
31
0.0
0
LINE
5
288
100
AcDbEntity
100
AcDbLine
8
3
62
256
370
-1
6
ByLayer
10
-1.0
20
-1.73205080757
30
0.0
11
-0.970949893577
21
-1.75163997599
31
0.0
0
LINE
5
289
100
AcDbEntity
100
AcDbLine
8
3
62
256
370
-1
6
ByLayer
10
-0.970949893577
20
-1.75163997599
30
0.0
11
-0.944115086802
21
-1.77562223008
31
0.0
0
LINE
5
290
100
AcDbEntity
100
AcDbLine
8
3
62
256
370
-1
6
ByLayer
10
-0.944115086802
20
-1.77562223008
30
0.0
11
-0.919299096851
21
-1.80422606518
31
0.0
0
LINE
5
291
100
AcDbEntity
100
AcDbLine
8
3
62
256
370
-1
6
ByLayer
10
-0.919299096851
20
-1.80422606518
30
0.0
11
-0.89632923796
21
-1.83774727991
31
0.0
0
LINE
5
292
100
AcDbEntity
100
AcDbLine
8
3
62
256
370
-1
6
ByLayer
10
-0.89632923796
20
-1.83774727991
30
0.0
11
-0.875053239573
21
-1.87655772808
31
0.0
0
LINE
5
293
100
AcDbEntity
100
AcDbLine
8
3
62
256
370
-1
6
ByLayer
10
-0.875053239573
20
-1.87655772808
30
0.0
11
-0.855336430815
21
-1.92111707767
31
0.0
0
LINE
5
294
100
AcDbEntity
100
AcDbLine
8
3
62
256
370
-1
6
ByLayer
10
-0.855336430815
20
-1.92111707767
30
0.0
11
-0.837059384279
21
-1.97198833079
31
0.0
0
LINE
5
295
100
AcDbEntity
100
AcDbLine
8
3
62
256
370
-1
6
ByLayer
10
-0.837059384279
20
-1.97198833079
30
0.0
11
-0.820115934641
21
-2.02985816811
31
0.0
0
LINE
5
296
100
AcDbEntity
100
AcDbLine
8
3
62
256
370
-1
6
ByLayer
10
-0.820115934641
20
-2.02985816811
30
0.0
11
-0.804411505004
21
-2.0955636152
31
0.0
0
LINE
5
297
100
AcDbEntity
100
AcDbLine
8
3
62
256
370
-1
6
ByLayer
10
-0.804411505004
20
-2.0955636152
30
0.0
11
-0.789861687269
21
-2.17012715026
31
0.0
0
LINE
5
298
100
AcDbEntity
100
AcDbLine
8
3
62
256
370
-1
6
ByLayer
10
-0.789861687269
20
-2.17012715026
30
0.0
11
-0.776391033382
21
-2.25480328448
31
0.0
0
LINE
5
299
100
AcDbEntity
100
AcDbLine
8
3
62
256
370
-1
6
ByLayer
10
-0.776391033382
20
-2.25480328448
30
0.0
11
-0.7639320225
21
-2.35114100917
31
0.0
0
LINE
5
300
100
AcDbEntity
100
AcDbLine
8
3
62
256
370
-1
6
ByLayer
10
-0.7639320225
20
-2.35114100917
30
0.0
11
-0.752424175697
21
-2.46106858529
31
0.0
0
LINE
5
301
100
AcDbEntity
100
AcDbLine
8
3
62
256
370
-1
6
ByLayer
10
-0.752424175697
20
-2.46106858529
30
0.0
11
-0.741813294979
21
-2.58701039954
31
0.0
0
LINE
5
302
100
AcDbEntity
100
AcDbLine
8
3
62
256
370
-1
6
ByLayer
10
-0.741813294979
20
-2.58701039954
30
0.0
11
-0.732050807569
21
-2.73205080757
31
0.0
0
LINE
5
303
100
AcDbEntity
100
AcDbLine
8
3
62
256
370
-1
6
ByLayer
10
-0.732050807569
20
-2.73205080757
30
0.0
11
-0.723093199745
21
-2.90016841871
31
0.0
0
LINE
5
304
100
AcDbEntity
100
AcDbLine
8
3
62
256
370
-1
6
ByLayer
10
-0.723093199745
20
-2.90016841871
30
0.0
11
-0.714901527245
21
-3.09657871775
31
0.0
0
LINE
5
305
100
AcDbEntity
100
AcDbLine
8
3
62
256
370
-1
6
ByLayer
10
-0.714901527245
20
-3.09657871775
30
0.0
11
-0.70744099144
21
-3.32824818901
31
0.0
0
LINE
5
306
100
AcDbEntity
100
AcDbLine
8
3
62
256
370
-1
6
ByLayer
10
-0.70744099144
20
-3.32824818901
30
0.0
11
-0.700680572303
21
-3.60468905216
31
0.0
0
LINE
5
307
100
AcDbEntity
100
AcDbLine
8
3
62
256
370
-1
6
ByLayer
10
-0.700680572303
20
-3.60468905216
30
0.0
11
-0.694592710668
21
-3.93923101205
31
0.0
0
LINE
5
308
100
AcDbEntity
100
AcDbLine
8
3
62
256
370
-1
6
ByLayer
10
-0.694592710668
20
-3.93923101205
30
0.0
11
-0.689153033511
21
-4.35114100917
31
0.0
0
LINE
5
309
100
AcDbEntity
100
AcDbLine
8
3
62
256
370
-1
6
ByLayer
10
-0.689153033511
20
-4.35114100917
30
0.0
11
-0.684340117023
21
-4.86933294848
31
0.0
0
LINE
5
310
100
AcDbEntity
100
AcDbLine
8
3
62
256
370
-1
6
ByLayer
10
-0.684340117023
20
-4.86933294848
30
0.0
11
-0.680135283079
21
-5.53925736328
31
0.0
0
LINE
5
311
100
AcDbEntity
100
AcDbLine
8
3
62
256
370
-1
6
ByLayer
10
-0.680135283079
20
-5.53925736328
30
0.0
11
-0.676522425435
21
-6.43668091705
31
0.0
0
LINE
5
312
100
AcDbEntity
100
AcDbLine
8
3
62
256
370
-1
6
ByLayer
10
-0.676522425435
20
-6.43668091705
30
0.0
11
-0.673487862635
21
-7.69800149519
31
0.0
0
LINE
5
313
100
AcDbEntity
100
AcDbLine
8
3
62
256
370
-1
6
ByLayer
10
-0.673487862635
20
-7.69800149519
30
0.0
11
-0.671020215071
21
-9.59603614723
31
0.0
0
LINE
5
314
100
AcDbEntity
100
AcDbLine
8
3
62
256
370
-1
6
ByLayer
10
-0.671020215071
20
-9.59603614723
30
0.0
11
-0.669110304171
21
-12.7673851731
31
0.0
0
LINE
5
315
100
AcDbEntity
100
AcDbLine
8
3
62
256
370
-1
6
ByLayer
10
-0.669110304171
20
-12.7673851731
30
0.0
11
-0.667751072034
21
-19.1218888287
31
0.0
0
LINE
5
316
100
AcDbEntity
100
AcDbLine
8
3
62
256
370
-1
6
ByLayer
10
-0.667751072034
20
-19.1218888287
30
0.0
11
-0.666937520212
21
-38.208824943
31
0.0
0
LINE
5
317
100
AcDbEntity
100
AcDbLine
8
3
62
256
370
-1
6
ByLayer
10
-0.666937520212
20
-38.208824943
30
0.0
11
-0.666666666667
21
-3.62928416186e+15
31
0.0
0
LINE
5
318
100
AcDbEntity
100
AcDbLine
8
3
62
256
370
-1
6
ByLayer
10
-0.666666666667
20
-3.62928416186e+15
30
0.0
11
-0.666937520212
21
38.208824943
31
0.0
0
LINE
5
319
100
AcDbEntity
100
AcDbLine
8
3
62
256
370
-1
6
ByLayer
10
-0.666937520212
20
38.208824943
30
0.0
11
-0.667751072034
21
19.1218888287
31
0.0
0
LINE
5
320
100
AcDbEntity
100
AcDbLine
8
3
62
256
370
-1
6
ByLayer
10
-0.667751072034
20
19.1218888287
30
0.0
11
-0.669110304171
21
12.7673851731
31
0.0
0
LINE
5
321
100
AcDbEntity
100
AcDbLine
8
3
62
256
370
-1
6
ByLayer
10
-0.669110304171
20
12.7673851731
30
0.0
11
-0.671020215071
21
9.59603614723
31
0.0
0
LINE
5
322
100
AcDbEntity
100
AcDbLine
8
3
62
256
370
-1
6
ByLayer
10
-0.671020215071
20
9.59603614723
30
0.0
11
-0.673487862635
21
7.69800149519
31
0.0
0
LINE
5
323
100
AcDbEntity
100
AcDbLine
8
3
62
256
370
-1
6
ByLayer
10
-0.673487862635
20
7.69800149519
30
0.0
11
-0.676522425435
21
6.43668091705
31
0.0
0
LINE
5
324
100
AcDbEntity
100
AcDbLine
8
3
62
256
370
-1
6
ByLayer
10
-0.676522425435
20
6.43668091705
30
0.0
11
-0.680135283079
21
5.53925736328
31
0.0
0
LINE
5
325
100
AcDbEntity
100
AcDbLine
8
3
62
256
370
-1
6
ByLayer
10
-0.680135283079
20
5.53925736328
30
0.0
11
-0.684340117023
21
4.86933294848
31
0.0
0
LINE
5
326
100
AcDbEntity
100
AcDbLine
8
3
62
256
370
-1
6
ByLayer
10
-0.684340117023
20
4.86933294848
30
0.0
11
-0.689153033511
21
4.35114100917
31
0.0
0
LINE
5
327
100
AcDbEntity
100
AcDbLine
8
3
62
256
370
-1
6
ByLayer
10
-0.689153033511
20
4.35114100917
30
0.0
11
-0.694592710668
21
3.93923101205
31
0.0
0
LINE
5
328
100
AcDbEntity
100
AcDbLine
8
3
62
256
370
-1
6
ByLayer
10
-0.694592710668
20
3.93923101205
30
0.0
11
-0.700680572303
21
3.60468905216
31
0.0
0
LINE
5
329
100
AcDbEntity
100
AcDbLine
8
3
62
256
370
-1
6
ByLayer
10
-0.700680572303
20
3.60468905216
30
0.0
11
-0.70744099144
21
3.32824818901
31
0.0
0
LINE
5
330
100
AcDbEntity
100
AcDbLine
8
3
62
256
370
-1
6
ByLayer
10
-0.70744099144
20
3.32824818901
30
0.0
11
-0.714901527245
21
3.09657871775
31
0.0
0
LINE
5
331
100
AcDbEntity
100
AcDbLine
8
3
62
256
370
-1
6
ByLayer
10
-0.714901527245
20
3.09657871775
30
0.0
11
-0.723093199745
21
2.90016841871
31
0.0
0
LINE
5
332
100
AcDbEntity
100
AcDbLine
8
3
62
256
370
-1
6
ByLayer
10
-0.723093199745
20
2.90016841871
30
0.0
11
-0.732050807569
21
2.73205080757
31
0.0
0
LINE
5
333
100
AcDbEntity
100
AcDbLine
8
3
62
256
370
-1
6
ByLayer
10
-0.732050807569
20
2.73205080757
30
0.0
11
-0.741813294979
21
2.58701039954
31
0.0
0
LINE
5
334
100
AcDbEntity
100
AcDbLine
8
3
62
256
370
-1
6
ByLayer
10
-0.741813294979
20
2.58701039954
30
0.0
11
-0.752424175697
21
2.46106858529
31
0.0
0
LINE
5
335
100
AcDbEntity
100
AcDbLine
8
3
62
256
370
-1
6
ByLayer
10
-0.752424175697
20
2.46106858529
30
0.0
11
-0.7639320225
21
2.35114100917
31
0.0
0
LINE
5
336
100
AcDbEntity
100
AcDbLine
8
3
62
256
370
-1
6
ByLayer
10
-0.7639320225
20
2.35114100917
30
0.0
11
-0.776391033382
21
2.25480328448
31
0.0
0
LINE
5
337
100
AcDbEntity
100
AcDbLine
8
3
62
256
370
-1
6
ByLayer
10
-0.776391033382
20
2.25480328448
30
0.0
11
-0.789861687269
21
2.17012715026
31
0.0
0
LINE
5
338
100
AcDbEntity
100
AcDbLine
8
3
62
256
370
-1
6
ByLayer
10
-0.789861687269
20
2.17012715026
30
0.0
11
-0.804411505004
21
2.0955636152
31
0.0
0
LINE
5
339
100
AcDbEntity
100
AcDbLine
8
3
62
256
370
-1
6
ByLayer
10
-0.804411505004
20
2.0955636152
30
0.0
11
-0.820115934641
21
2.02985816811
31
0.0
0
LINE
5
340
100
AcDbEntity
100
AcDbLine
8
3
62
256
370
-1
6
ByLayer
10
-0.820115934641
20
2.02985816811
30
0.0
11
-0.837059384279
21
1.97198833079
31
0.0
0
LINE
5
341
100
AcDbEntity
100
AcDbLine
8
3
62
256
370
-1
6
ByLayer
10
-0.837059384279
20
1.97198833079
30
0.0
11
-0.855336430815
21
1.92111707767
31
0.0
0
LINE
5
342
100
AcDbEntity
100
AcDbLine
8
3
62
256
370
-1
6
ByLayer
10
-0.855336430815
20
1.92111707767
30
0.0
11
-0.875053239573
21
1.87655772808
31
0.0
0
LINE
5
343
100
AcDbEntity
100
AcDbLine
8
3
62
256
370
-1
6
ByLayer
10
-0.875053239573
20
1.87655772808
30
0.0
11
-0.89632923796
21
1.83774727991
31
0.0
0
LINE
5
344
100
AcDbEntity
100
AcDbLine
8
3
62
256
370
-1
6
ByLayer
10
-0.89632923796
20
1.83774727991
30
0.0
11
-0.919299096851
21
1.80422606518
31
0.0
0
LINE
5
345
100
AcDbEntity
100
AcDbLine
8
3
62
256
370
-1
6
ByLayer
10
-0.919299096851
20
1.80422606518
30
0.0
11
-0.944115086802
21
1.77562223008
31
0.0
0
LINE
5
346
100
AcDbEntity
100
AcDbLine
8
3
62
256
370
-1
6
ByLayer
10
-0.944115086802
20
1.77562223008
30
0.0
11
-0.970949893577
21
1.75163997599
31
0.0
0
LINE
5
347
100
AcDbEntity
100
AcDbLine
8
3
62
256
370
-1
6
ByLayer
10
-0.970949893577
20
1.75163997599
30
0.0
11
-1.0
21
1.73205080757
31
0.0
0
LINE
5
348
100
AcDbEntity
100
AcDbLine
8
3
62
256
370
-1
6
ByLayer
10
-1.0
20
1.73205080757
30
0.0
11
-1.0314897707
21
1.71668726163
31
0.0
0
LINE
5
349
100
AcDbEntity
100
AcDbLine
8
3
62
256
370
-1
6
ByLayer
10
-1.0314897707
20
1.71668726163
30
0.0
11
-1.06567641537
21
1.70543876431
31
0.0
0
LINE
5
350
100
AcDbEntity
100
AcDbLine
8
3
62
256
370
-1
6
ByLayer
10
-1.06567641537
20
1.70543876431
30
0.0
11
-1.10285605819
21
1.69824940414
31
0.0
0
LINE
5
351
100
AcDbEntity
100
AcDbLine
8
3
62
256
370
-1
6
ByLayer
10
-1.10285605819
20
1.69824940414
30
0.0
11
-1.14337121116
21
1.69511753018
31
0.0
0
LINE
5
352
100
AcDbEntity
100
AcDbLine
8
3
62
256
370
-1
6
ByLayer
10
-1.14337121116
20
1.69511753018
30
0.0
11
-1.1876200444
21
1.69609719917
31
0.0
0
LINE
5
353
100
AcDbEntity
100
AcDbLine
8
3
62
256
370
-1
6
ByLayer
10
-1.1876200444
20
1.69609719917
30
0.0
11
-1.2360679775
21
1.7013016167
31
0.0
0
LINE
5
354
100
AcDbEntity
100
AcDbLine
8
3
62
256
370
-1
6
ByLayer
10
-1.2360679775
20
1.7013016167
30
0.0
11
-1.28926229829
21
1.71090885666
31
0.0
0
LINE
5
355
100
AcDbEntity
100
AcDbLine
8
3
62
256
370
-1
6
ByLayer
10
-1.28926229829
20
1.71090885666
30
0.0
11
-1.34785077234
21
1.7251703175
31
0.0
0
LINE
5
356
100
AcDbEntity
100
AcDbLine
8
3
62
256
370
-1
6
ByLayer
10
-1.34785077234
20
1.7251703175
30
0.0
11
-1.41260557351
21
1.74442260603
31
0.0
0
LINE
5
357
100
AcDbEntity
100
AcDbLine
8
3
62
256
370
-1
6
ByLayer
10
-1.41260557351
20
1.74442260603
30
0.0
11
-1.48445439794
21
1.76910386178
31
0.0
0
LINE
5
358
100
AcDbEntity
100
AcDbLine
8
3
62
256
370
-1
6
ByLayer
10
-1.48445439794
20
1.76910386178
30
0.0
11
-1.5645214082
21
1.79977600042
31
0.0
0
LINE
5
359
100
AcDbEntity
100
AcDbLine
8
3
62
256
370
-1
6
ByLayer
10
-1.5645214082
20
1.79977600042
30
0.0
11
-1.65418183057
21
1.83715504283
31
0.0
0
LINE
5
360
100
AcDbEntity
100
AcDbLine
8
3
62
256
370
-1
6
ByLayer
10
-1.65418183057
20
1.83715504283
30
0.0
11
-1.75513582747
21
1.88215274322
31
0.0
0
LINE
5
361
100
AcDbEntity
100
AcDbLine
8
3
62
256
370
-1
6
ByLayer
10
-1.75513582747
20
1.88215274322
30
0.0
11
-1.86951007837
21
1.93593435809
31
0.0
0
LINE
5
362
100
AcDbEntity
100
AcDbLine
8
3
62
256
370
-1
6
ByLayer
10
-1.86951007837
20
1.93593435809
30
0.0
11
-2.0
21
2.0
31
0.0
0
LINE
5
363
100
AcDbEntity
100
AcDbLine
8
3
62
256
370
-1
6
ByLayer
10
-2.0
20
2.0
30
0.0
11
-2.15007292598
21
2.07630128964
31
0.0
0
LINE
5
364
100
AcDbEntity
100
AcDbLine
8
3
62
256
370
-1
6
ByLayer
10
-2.15007292598
20
2.07630128964
30
0.0
11
-2.32426507077
21
2.16741224267
31
0.0
0
LINE
5
365
100
AcDbEntity
100
AcDbLine
8
3
62
256
370
-1
6
ByLayer
10
-2.32426507077
20
2.16741224267
30
0.0
11
-2.52862698606
21
2.27678596477
31
0.0
0
LINE
5
366
100
AcDbEntity
100
AcDbLine
8
3
62
256
370
-1
6
ByLayer
10
-2.52862698606
20
2.27678596477
30
0.0
11
-2.77141200576
21
2.40915170163
31
0.0
0
LINE
5
367
100
AcDbEntity
100
AcDbLine
8
3
62
256
370
-1
6
ByLayer
10
-2.77141200576
20
2.40915170163
30
0.0
11
-3.06417777248
21
2.57115043875
31
0.0
0
LINE
5
368
100
AcDbEntity
100
AcDbLine
8
3
62
256
370
-1
6
ByLayer
10
-3.06417777248
20
2.57115043875
30
0.0
11
-3.42362213263
21
2.7723945387
31
0.0
0
LINE
5
369
100
AcDbEntity
100
AcDbLine
8
3
62
256
370
-1
6
ByLayer
10
-3.42362213263
20
2.7723945387
30
0.0
11
-3.87479597436
21
3.02732240041
31
0.0
0
LINE
5
370
100
AcDbEntity
100
AcDbLine
8
3
62
256
370
-1
6
ByLayer
10
-3.87479597436
20
3.02732240041
30
0.0
11
-4.45706995316
21
3.3586431148
31
0.0
0
LINE
5
371
100
AcDbEntity
100
AcDbLine
8
3
62
256
370
-1
6
ByLayer
10
-4.45706995316
20
3.3586431148
30
0.0
11
-5.2360679775
21
3.80422606518
31
0.0
0
LINE
5
372
100
AcDbEntity
100
AcDbLine
8
3
62
256
370
-1
6
ByLayer
10
-5.2360679775
20
3.80422606518
30
0.0
11
-6.32992092189
21
4.43225834578
31
0.0
0
LINE
5
373
100
AcDbEntity
100
AcDbLine
8
3
62
256
370
-1
6
ByLayer
10
-6.32992092189
20
4.43225834578
30
0.0
11
-7.9749009716
21
5.37913862632
31
0.0
0
LINE
5
374
100
AcDbEntity
100
AcDbLine
8
3
62
256
370
-1
6
ByLayer
10
-7.9749009716
20
5.37913862632
30
0.0
11
-10.7223247477
21
6.96315910787
31
0.0
0
LINE
5
375
100
AcDbEntity
100
AcDbLine
8
3
62
256
370
-1
6
ByLayer
10
-10.7223247477
20
6.96315910787
30
0.0
11
-16.226165958
21
10.1392338061
31
0.0
0
LINE
5
376
100
AcDbEntity
100
AcDbLine
8
3
62
256
370
-1
6
ByLayer
10
-16.226165958
20
10.1392338061
30
0.0
11
-32.7563442893
21
19.6819973068
31
0.0
0
LINE
5
377
100
AcDbEntity
100
AcDbLine
8
3
62
256
370
-1
6
ByLayer
10
-32.7563442893
20
19.6819973068
30
0.0
11
-7.06991159371e+14
21
4.08181536178e+14
31
0.0
0
LINE
5
378
100
AcDbEntity
100
AcDbLine
8
3
62
256
370
-1
6
ByLayer
10
-7.06991159371e+14
20
4.08181536178e+14
30
0.0
11
33.4232818095
21
-18.5268276363
31
0.0
0
LINE
5
379
100
AcDbEntity
100
AcDbLine
8
3
62
256
370
-1
6
ByLayer
10
33.4232818095
20
-18.5268276363
30
0.0
11
16.89391703
21
-8.98265502256
31
0.0
0
LINE
5
380
100
AcDbEntity
100
AcDbLine
8
3
62
256
370
-1
6
ByLayer
10
16.89391703
20
-8.98265502256
30
0.0
11
11.3914350519
21
-5.80422606518
31
0.0
0
LINE
5
381
100
AcDbEntity
100
AcDbLine
8
3
62
256
370
-1
6
ByLayer
10
11.3914350519
20
-5.80422606518
30
0.0
11
8.64592118667
21
-4.21689752091
31
0.0
0
LINE
5
382
100
AcDbEntity
100
AcDbLine
8
3
62
256
370
-1
6
ByLayer
10
8.64592118667
20
-4.21689752091
30
0.0
11
7.00340878452
21
-3.26574314941
31
0.0
0
LINE
5
383
100
AcDbEntity
100
AcDbLine
8
3
62
256
370
-1
6
ByLayer
10
7.00340878452
20
-3.26574314941
30
0.0
11
5.91259040294
21
-2.63245485187
31
0.0
0
LINE
5
384
100
AcDbEntity
100
AcDbLine
8
3
62
256
370
-1
6
ByLayer
10
5.91259040294
20
-2.63245485187
30
0.0
11
5.13720523624
21
-2.18061424848
31
0.0
0
LINE
5
385
100
AcDbEntity
100
AcDbLine
8
3
62
256
370
-1
6
ByLayer
10
5.13720523624
20
-2.18061424848
30
0.0
11
4.55913609138
21
-1.84201054807
31
0.0
0
LINE
5
386
100
AcDbEntity
100
AcDbLine
8
3
62
256
370
-1
6
ByLayer
10
4.55913609138
20
-1.84201054807
30
0.0
11
4.11277516614
21
-1.57874647047
31
0.0
0
LINE
5
387
100
AcDbEntity
100
AcDbLine
8
3
62
256
370
-1
6
ByLayer
10
4.11277516614
20
-1.57874647047
30
0.0
11
3.75877048314
21
-1.3680805733
31
0.0
0
LINE
5
388
100
AcDbEntity
100
AcDbLine
8
3
62
256
370
-1
6
ByLayer
10
3.75877048314
20
-1.3680805733
30
0.0
11
3.47209257806
21
-1.19553735052
31
0.0
0
LINE
5
389
100
AcDbEntity
100
AcDbLine
8
3
62
256
370
-1
6
ByLayer
10
3.47209257806
20
-1.19553735052
30
0.0
11
3.2360679775
21
-1.05146222424
31
0.0
0
LINE
5
390
100
AcDbEntity
100
AcDbLine
8
3
62
256
370
-1
6
ByLayer
10
3.2360679775
20
-1.05146222424
30
0.0
11
3.03916659801
21
-0.929166475076
31
0.0
0
LINE
5
391
100
AcDbEntity
100
AcDbLine
8
3
62
256
370
-1
6
ByLayer
10
3.03916659801
20
-0.929166475076
30
0.0
11
2.87316612573
21
-0.82386712907
31
0.0
0
LINE
5
392
100
AcDbEntity
100
AcDbLine
8
3
62
256
370
-1
6
ByLayer
10
2.87316612573
20
-0.82386712907
30
0.0
11
2.73205080757
21
-0.732050807569
31
0.0
0
LINE
5
393
100
AcDbEntity
100
AcDbLine
8
3
62
256
370
-1
6
ByLayer
10
2.73205080757
20
-0.732050807569
30
0.0
11
2.61132337335
21
-0.651076041455
31
0.0
0
LINE
5
394
100
AcDbEntity
100
AcDbLine
8
3
62
256
370
-1
6
ByLayer
10
2.61132337335
20
-0.651076041455
30
0.0
11
2.50756000316
21
-0.578915842069
31
0.0
0
LINE
5
395
100
AcDbEntity
100
AcDbLine
8
3
62
256
370
-1
6
ByLayer
10
2.50756000316
20
-0.578915842069
30
0.0
11
2.41811385307
21
-0.513985966335
31
0.0
0
LINE
5
396
100
AcDbEntity
100
AcDbLine
8
3
62
256
370
-1
6
ByLayer
10
2.41811385307
20
-0.513985966335
30
0.0
11
2.34091244159
21
-0.45502728406
31
0.0
0
LINE
5
397
100
AcDbEntity
100
AcDbLine
8
3
62
256
370
-1
6
ByLayer
10
2.34091244159
20
-0.45502728406
30
0.0
11
2.27431608521
21
-0.401023288481
31
0.0
0
LINE
5
398
100
AcDbEntity
100
AcDbLine
8
3
62
256
370
-1
6
ByLayer
10
2.27431608521
20
-0.401023288481
30
0.0
11
2.21701707851
21
-0.35114100917
31
0.0
0
LINE
5
399
100
AcDbEntity
100
AcDbLine
8
3
62
256
370
-1
6
ByLayer
10
2.21701707851
20
-0.35114100917
30
0.0
11
2.16796670698
21
-0.304687850606
31
0.0
0
LINE
5
400
100
AcDbEntity
100
AcDbLine
8
3
62
256
370
-1
6
ByLayer
10
2.16796670698
20
-0.304687850606
30
0.0
11
2.12632168257
21
-0.261079474133
31
0.0
0
LINE
5
401
100
AcDbEntity
100
AcDbLine
8
3
62
256
370
-1
6
ByLayer
10
2.12632168257
20
-0.261079474133
30
0.0
11
2.09140440832
21
-0.219815460967
31
0.0
0
LINE
5
402
100
AcDbEntity
100
AcDbLine
8
3
62
256
370
-1
6
ByLayer
10
2.09140440832
20
-0.219815460967
30
0.0
11
2.06267328397
21
-0.180460528905
31
0.0
0
LINE
5
403
100
AcDbEntity
100
AcDbLine
8
3
62
256
370
-1
6
ByLayer
10
2.06267328397
20
-0.180460528905
30
0.0
11
2.03970044912
21
-0.142629749727
31
0.0
0
LINE
5
404
100
AcDbEntity
100
AcDbLine
8
3
62
256
370
-1
6
ByLayer
10
2.03970044912
20
-0.142629749727
30
0.0
11
2.02215515504
21
-0.105976661041
31
0.0
0
LINE
5
405
100
AcDbEntity
100
AcDbLine
8
3
62
256
370
-1
6
ByLayer
10
2.02215515504
20
-0.105976661041
30
0.0
11
2.00979150218
21
-0.0701834657739
31
0.0
0
LINE
5
406
100
AcDbEntity
100
AcDbLine
8
3
62
256
370
-1
6
ByLayer
10
2.00979150218
20
-0.0701834657739
30
0.0
11
2.00243966428
21
-0.0349527143548
31
0.0
0
MTEXT
5
407
100
AcDbEntity
100
AcDbMText
8
3
62
256
370
-1
6
ByLayer
10
1.13149882142e+16
20
-1.08878524856e+16
30
0.0
40
3
41
100.0
71
8
72
0
1
Epispiral Curve
7
normallatin1
50
0.0
73
1
44
1.0
0
ENDSEC
  0
SECTION
  2
OBJECTS
  0
DICTIONARY
  5
C
100
AcDbDictionary
280
0
281
1
  3
ACAD_GROUP
350
D
  3
ACAD_LAYOUT
350
1A
  3
ACAD_MLINESTYLE
350
17
  3
ACAD_PLOTSETTINGS
350
19
  3
ACAD_PLOTSTYLENAME
350
E
  3
AcDbVariableDictionary
350
48
  0
DICTIONARY
  5
D
100
AcDbDictionary
280
0
281
1
  0
ACDBDICTIONARYWDFLT
  5
E
100
AcDbDictionary
281
1
  3
Normal
350
F
100
AcDbDictionaryWithDefault
340
F
  0
ACDBPLACEHOLDER
  5
F
  0
DICTIONARY
  5
17
100
AcDbDictionary
280
0
281
1
  3
Standard
350
18
  0
MLINESTYLE
  5
18
100
AcDbMlineStyle
  2
STANDARD
 70
0
  3

 62
256
 51
90.0
 52
90.0
 71
2
 49
0.5
 62
256
  6
BYLAYER
 49
-0.5
 62
256
  6
BYLAYER
  0
DICTIONARY
  5
19
100
AcDbDictionary
280
0
281
1
  0
DICTIONARY
  5
1A
100
AcDbDictionary
281
1
  3
Layout1
350
1E
  3
Layout2
350
26
  3
Model
350
22
  0
LAYOUT
  5
1E
100
AcDbPlotSettings
  1

  2
C:\Program Files\AutoCAD 2002\plotters\DWF ePlot (optimized for plotting).pc3
  4

  6

 40
0.0
 41
0.0
 42
0.0
 43
0.0
 44
0.0
 45
0.0
 46
0.0
 47
0.0
 48
0.0
 49
0.0
140
0.0
141
0.0
142
1.0
143
1.0
 70
688
 72
0
 73
0
 74
5
  7

 75
16
147
1.0
148
0.0
149
0.0
100
AcDbLayout
  1
Layout1
 70
1
 71
1
 10
0.0
 20
0.0
 11
420.0
 21
297.0
 12
0.0
 22
0.0
 32
0.0
 14
100000000000000000000.0
 24
100000000000000000000.0
 34
100000000000000000000.0
 15
-100000000000000000000.0
 25
-100000000000000000000.0
 35
-100000000000000000000.0
146
0.0
 13
0.0
 23
0.0
 33
0.0
 16
1.0
 26
0.0
 36
0.0
 17
0.0
 27
1.0
 37
0.0
 76
0
330
1B
  0
LAYOUT
  5
22
100
AcDbPlotSettings
  1

  2
C:\Program Files\AutoCAD 2002\plotters\DWF ePlot (optimized for plotting).pc3
  4

  6

 40
0.0
 41
0.0
 42
0.0
 43
0.0
 44
0.0
 45
0.0
 46
0.0
 47
0.0
 48
0.0
 49
0.0
140
0.0
141
0.0
142
1.0
143
1.0
 70
1712
 72
0
 73
0
 74
0
  7

 75
0
147
1.0
148
0.0
149
0.0
100
AcDbLayout
  1
Model
 70
1
 71
0
 10
0.0
 20
0.0
 11
12.0
 21
9.0
 12
0.0
 22
0.0
 32
0.0
 14
0.0
 24
0.0
 34
0.0
 15
0.0
 25
0.0
 35
0.0
146
0.0
 13
0.0
 23
0.0
 33
0.0
 16
1.0
 26
0.0
 36
0.0
 17
0.0
 27
1.0
 37
0.0
 76
0
330
1F
  0
LAYOUT
  5
26
100
AcDbPlotSettings
  1

  2
C:\Program Files\AutoCAD 2002\plotters\DWF ePlot (optimized for plotting).pc3
  4

  6

 40
0.0
 41
0.0
 42
0.0
 43
0.0
 44
0.0
 45
0.0
 46
0.0
 47
0.0
 48
0.0
 49
0.0
140
0.0
141
0.0
142
1.0
143
1.0
 70
688
 72
0
 73
0
 74
5
  7

 75
16
147
1.0
148
0.0
149
0.0
100
AcDbLayout
  1
Layout2
 70
1
 71
2
 10
0.0
 20
0.0
 11
12.0
 21
9.0
 12
0.0
 22
0.0
 32
0.0
 14
0.0
 24
0.0
 34
0.0
 15
0.0
 25
0.0
 35
0.0
146
0.0
 13
0.0
 23
0.0
 33
0.0
 16
1.0
 26
0.0
 36
0.0
 17
0.0
 27
1.0
 37
0.0
 76
0
330
23
  0
DICTIONARY
  5
48
100
AcDbDictionary
281
1
  3
DIMASSOC
350
4A
  3
HIDETEXT
350
49
  0
DICTIONARYVAR
  5
49
100
DictionaryVariables
280
0
  1
2
  0
DICTIONARYVAR
  5
4A
100
DictionaryVariables
280
0
  1
1
  0
ENDSEC
  0
EOF
