999
dxflib 2.0.4.8
  0
SECTION
  2
HEADER
  9
$ACADVER
  1
AC1015
  9
$HANDSEED
  5
FFFF
  9
$DIMASZ
 40
2.5
  9
$DIMGAP
 40
0.625
  9
$DIMEXO
 40
0.625
  9
$INSUNITS
 70
4
  9
$DIMTXT
 40
2.5
  9
$PLIMMAX
 10
210.0
 20
297.0
  9
$PLIMMIN
 10
0.0
 20
0.0
  9
$DIMEXE
 40
1.25
  0
ENDSEC
  0
SECTION
  2
TABLES
  0
TABLE
  2
VPORT
  5
8
100
AcDbSymbolTable
 70
1
  0
VPORT
  5
30
100
AcDbSymbolTableRecord
100
AcDbViewportTableRecord
  2
*Active
 70
0
 10
0.0
 20
0.0
 11
1.0
 21
1.0
 12
286.3055555555554861
 22
148.5
 13
0.0
 23
0.0
 14
10.0
 24
10.0
 15
10.0
 25
10.0
 16
0.0
 26
0.0
 36
1.0
 17
0.0
 27
0.0
 37
0.0
 40
297.0
 41
1.92798353909465
 42
50.0
 43
0.0
 44
0.0
 50
0.0
 51
0.0
 71
0
 72
100
 73
1
 74
3
 75
1
 76
1
 77
0
 78
0
281
0
 65
1
110
0.0
120
0.0
130
0.0
111
1.0
121
0.0
131
0.0
112
0.0
122
1.0
132
0.0
 79
0
146
0.0
  0
ENDTAB
  0
TABLE
  2
LTYPE
  5
5
100
AcDbSymbolTable
 70
21
  0
LTYPE
  5
14
100
AcDbSymbolTableRecord
100
AcDbLinetypeTableRecord
  2
ByBlock
 70
0
  3

 72
65
 73
0
 40
0.0
  0
LTYPE
  5
15
100
AcDbSymbolTableRecord
100
AcDbLinetypeTableRecord
  2
ByLayer
 70
0
  3

 72
65
 73
0
 40
0.0
  0
LTYPE
  5
16
100
AcDbSymbolTableRecord
100
AcDbLinetypeTableRecord
  2
CONTINUOUS
 70
0
  3
Solid line
 72
65
 73
0
 40
0.0
  0
LTYPE
  5
31
100
AcDbSymbolTableRecord
100
AcDbLinetypeTableRecord
  2
DOT
 70
0
  3
Dot . . . . . . . . . . . . . . . . . . . . . .
 72
65
 73
2
 40
6.3499999999999996
 49
0.0
 74
0
 49
-6.3499999999999996
 74
0
  0
LTYPE
  5
32
100
AcDbSymbolTableRecord
100
AcDbLinetypeTableRecord
  2
DOT2
 70
0
  3
Dot (.5x) .....................................
 72
65
 73
2
 40
3.1749999999999998
 49
0.0
 74
0
 49
-3.1749999999999998
 74
0
  0
LTYPE
  5
33
100
AcDbSymbolTableRecord
100
AcDbLinetypeTableRecord
  2
DOTX2
 70
0
  3
Dot (2x) .  .  .  .  .  .  .  .  .  .  .  .  .
 72
65
 73
2
 40
12.6999999999999993
 49
0.0
 74
0
 49
-12.6999999999999993
 74
0
  0
LTYPE
  5
34
100
AcDbSymbolTableRecord
100
AcDbLinetypeTableRecord
  2
DASHED
 70
0
  3
Dashed __ __ __ __ __ __ __ __ __ __ __ __ __ _
 72
65
 73
2
 40
19.0500000000000007
 49
12.6999999999999993
 74
0
 49
-6.3499999999999996
 74
0
  0
LTYPE
  5
35
100
AcDbSymbolTableRecord
100
AcDbLinetypeTableRecord
  2
DASHED2
 70
0
  3
Dashed (.5x) _ _ _ _ _ _ _ _ _ _ _ _ _ _ _ _ _
 72
65
 73
2
 40
9.5250000000000004
 49
6.3499999999999996
 74
0
 49
-3.1749999999999998
 74
0
  0
LTYPE
  5
36
100
AcDbSymbolTableRecord
100
AcDbLinetypeTableRecord
  2
DASHEDX2
 70
0
  3
Dashed (2x) ____  ____  ____  ____  ____  ___
 72
65
 73
2
 40
38.1000000000000014
 49
25.3999999999999986
 74
0
 49
-12.6999999999999993
 74
0
  0
LTYPE
  5
37
100
AcDbSymbolTableRecord
100
AcDbLinetypeTableRecord
  2
DASHDOT
 70
0
  3
Dash dot __ . __ . __ . __ . __ . __ . __ . __
 72
65
 73
4
 40
25.3999999999999986
 49
12.6999999999999993
 74
0
 49
-6.3499999999999996
 74
0
 49
0.0
 74
0
 49
-6.3499999999999996
 74
0
  0
LTYPE
  5
38
100
AcDbSymbolTableRecord
100
AcDbLinetypeTableRecord
  2
DASHDOT2
 70
0
  3
Dash dot (.5x) _._._._._._._._._._._._._._._.
 72
65
 73
4
 40
12.6999999999999993
 49
6.3499999999999996
 74
0
 49
-3.1749999999999998
 74
0
 49
0.0
 74
0
 49
-3.1749999999999998
 74
0
  0
LTYPE
  5
39
100
AcDbSymbolTableRecord
100
AcDbLinetypeTableRecord
  2
DASHDOTX2
 70
0
  3
Dash dot (2x) ____  .  ____  .  ____  .  ___
 72
65
 73
4
 40
50.7999999999999972
 49
25.3999999999999986
 74
0
 49
-12.6999999999999993
 74
0
 49
0.0
 74
0
 49
-12.6999999999999993
 74
0
  0
LTYPE
  5
3A
100
AcDbSymbolTableRecord
100
AcDbLinetypeTableRecord
  2
DIVIDE
 70
0
  3
Divide ____ . . ____ . . ____ . . ____ . . ____
 72
65
 73
6
 40
31.75
 49
12.6999999999999993
 74
0
 49
-6.3499999999999996
 74
0
 49
0.0
 74
0
 49
-6.3499999999999996
 74
0
 49
0.0
 74
0
 49
-6.3499999999999996
 74
0
  0
LTYPE
  5
3B
100
AcDbSymbolTableRecord
100
AcDbLinetypeTableRecord
  2
DIVIDE2
 70
0
  3
Divide (.5x) __..__..__..__..__..__..__..__.._
 72
65
 73
6
 40
15.875
 49
6.3499999999999996
 74
0
 49
-3.1749999999999998
 74
0
 49
0.0
 74
0
 49
-3.1749999999999998
 74
0
 49
0.0
 74
0
 49
-3.1749999999999998
 74
0
  0
LTYPE
  5
3C
100
AcDbSymbolTableRecord
100
AcDbLinetypeTableRecord
  2
DIVIDEX2
 70
0
  3
Divide (2x) ________  .  .  ________  .  .  _
 72
65
 73
6
 40
63.5
 49
25.3999999999999986
 74
0
 49
-12.6999999999999993
 74
0
 49
0.0
 74
0
 49
-12.6999999999999993
 74
0
 49
0.0
 74
0
 49
-12.6999999999999993
 74
0
  0
LTYPE
  5
3D
100
AcDbSymbolTableRecord
100
AcDbLinetypeTableRecord
  2
CENTER
 70
0
  3
Center ____ _ ____ _ ____ _ ____ _ ____ _ ____
 72
65
 73
4
 40
50.7999999999999972
 49
31.75
 74
0
 49
-6.3499999999999996
 74
0
 49
6.3499999999999996
 74
0
 49
-6.3499999999999996
 74
0
  0
LTYPE
  5
3E
100
AcDbSymbolTableRecord
100
AcDbLinetypeTableRecord
  2
CENTER2
 70
0
  3
Center (.5x) ___ _ ___ _ ___ _ ___ _ ___ _ ___
 72
65
 73
4
 40
28.5749999999999993
 49
19.0500000000000007
 74
0
 49
-3.1749999999999998
 74
0
 49
3.1749999999999998
 74
0
 49
-3.1749999999999998
 74
0
  0
LTYPE
  5
3F
100
AcDbSymbolTableRecord
100
AcDbLinetypeTableRecord
  2
CENTERX2
 70
0
  3
Center (2x) ________  __  ________  __  _____
 72
65
 73
4
 40
101.5999999999999943
 49
63.5
 74
0
 49
-12.6999999999999993
 74
0
 49
12.6999999999999993
 74
0
 49
-12.6999999999999993
 74
0
  0
LTYPE
  5
40
100
AcDbSymbolTableRecord
100
AcDbLinetypeTableRecord
  2
BORDER
 70
0
  3
Border __ __ . __ __ . __ __ . __ __ . __ __ .
 72
65
 73
6
 40
44.4500000000000028
 49
12.6999999999999993
 74
0
 49
-6.3499999999999996
 74
0
 49
12.6999999999999993
 74
0
 49
-6.3499999999999996
 74
0
 49
0.0
 74
0
 49
-6.3499999999999996
 74
0
  0
LTYPE
  5
41
100
AcDbSymbolTableRecord
100
AcDbLinetypeTableRecord
  2
BORDER2
 70
0
  3
Border (.5x) __.__.__.__.__.__.__.__.__.__.__.
 72
65
 73
6
 40
22.2250000000000014
 49
6.3499999999999996
 74
0
 49
-3.1749999999999998
 74
0
 49
6.3499999999999996
 74
0
 49
-3.1749999999999998
 74
0
 49
0.0
 74
0
 49
-3.1749999999999998
 74
0
  0
LTYPE
  5
42
100
AcDbSymbolTableRecord
100
AcDbLinetypeTableRecord
  2
BORDERX2
 70
0
  3
Border (2x) ____  ____  .  ____  ____  .  ___
 72
65
 73
6
 40
88.9000000000000057
 49
25.3999999999999986
 74
0
 49
-12.6999999999999993
 74
0
 49
25.3999999999999986
 74
0
 49
-12.6999999999999993
 74
0
 49
0.0
 74
0
 49
-12.6999999999999993
 74
0
  0
ENDTAB
  0
TABLE
  2
LAYER
  5
2
100
AcDbSymbolTable
 70
6
  0
LAYER
  5
10
100
AcDbSymbolTableRecord
100
AcDbLayerTableRecord
  2
0
 70
0
 62
7
  6
CONTINUOUS
370
0
390
F
  0
LAYER
  5
43
100
AcDbSymbolTableRecord
100
AcDbLayerTableRecord
  2
1
 70
0
 62
6
  6
CONTINUOUS
370
0
390
F
  0
LAYER
  5
44
100
AcDbSymbolTableRecord
100
AcDbLayerTableRecord
  2
2
 70
0
 62
2
  6
CONTINUOUS
370
0
390
F
  0
LAYER
  5
45
100
AcDbSymbolTableRecord
100
AcDbLayerTableRecord
  2
3
 70
0
 62
3
  6
CONTINUOUS
370
0
390
F
  0
LAYER
  5
46
100
AcDbSymbolTableRecord
100
AcDbLayerTableRecord
  2
4
 70
0
 62
1
  6
CONTINUOUS
370
0
390
F
  0
LAYER
  5
47
100
AcDbSymbolTableRecord
100
AcDbLayerTableRecord
  2
5
 70
0
 62
5
  6
CONTINUOUS
370
0
390
F
  0
ENDTAB
  0
TABLE
  2
STYLE
  5
3
100
AcDbSymbolTable
 70
1
  0
STYLE
  5
11
100
AcDbSymbolTableRecord
100
AcDbTextStyleTableRecord
  2
Standard
 70
0
 40
0.0
 41
0.75
 50
0.0
 71
0
 42
2.5
  3
txt
  4

  0
ENDTAB
  0
TABLE
  2
VIEW
  5
6
100
AcDbSymbolTable
 70
0
  0
ENDTAB
  0
TABLE
  2
UCS
  5
7
100
AcDbSymbolTable
 70
0
  0
ENDTAB
  0
TABLE
  2
APPID
  5
9
100
AcDbSymbolTable
 70
1
  0
APPID
  5
12
100
AcDbSymbolTableRecord
100
AcDbRegAppTableRecord
  2
ACAD
 70
0
  0
ENDTAB
  0
TABLE
  2
DIMSTYLE
  5
A
100
AcDbSymbolTable
 70
1
100
AcDbDimStyleTable
 71
0
  0
DIMSTYLE
105
27
100
AcDbSymbolTableRecord
100
AcDbDimStyleTableRecord
  2
Standard
 41
2.5
 42
0.625
 43
3.75
 44
1.25
 70
0
 73
0
 74
0
 77
1
 78
8
140
2.5
141
2.5
143
0.03937007874016
147
0.625
171
3
172
1
271
2
272
2
274
3
278
44
283
0
284
8
340
11
  0
ENDTAB
  0
TABLE
  2
BLOCK_RECORD
  5
1
100
AcDbSymbolTable
 70
1
  0
BLOCK_RECORD
  5
1F
100
AcDbSymbolTableRecord
100
AcDbBlockTableRecord
  2
*Model_Space
340
22
  0
BLOCK_RECORD
  5
1B
100
AcDbSymbolTableRecord
100
AcDbBlockTableRecord
  2
*Paper_Space
340
1E
  0
BLOCK_RECORD
  5
23
100
AcDbSymbolTableRecord
100
AcDbBlockTableRecord
  2
*Paper_Space0
340
26
  0
ENDTAB
  0
ENDSEC
  0
SECTION
  2
BLOCKS
  0
BLOCK
  5
20
100
AcDbEntity
  8
0
100
AcDbBlockBegin
  2
*Model_Space
 70
0
 10
0.0
 20
0.0
 30
0.0
  3
*Model_Space
  1

  0
ENDBLK
  5
21
100
AcDbEntity
  8
0
100
AcDbBlockEnd
  0
BLOCK
  5
1C
100
AcDbEntity
 67
1
  8
0
100
AcDbBlockBegin
  2
*Paper_Space
 70
0
 10
0.0
 20
0.0
 30
0.0
  3
*Paper_Space
  1

  0
ENDBLK
  5
1D
100
AcDbEntity
 67
1
  8
0
100
AcDbBlockEnd
  0
BLOCK
  5
24
100
AcDbEntity
  8
0
100
AcDbBlockBegin
  2
*Paper_Space0
 70
0
 10
0.0
 20
0.0
 30
0.0
  3
*Paper_Space0
  1

  0
ENDBLK
  5
25
100
AcDbEntity
  8
0
100
AcDbBlockEnd
  0
ENDSEC
  0
SECTION
  2
ENTITIES
  0
LINE
5
48
100
AcDbEntity
100
AcDbLine
8
3
62
256
370
-1
6
ByLayer
10
200.0
20
0.0
30
0.0
11
199.969539031
21
1.74524064373
31
0.0
0
LINE
5
49
100
AcDbEntity
100
AcDbLine
8
3
62
256
370
-1
6
ByLayer
10
199.969539031
20
1.74524064373
30
0.0
11
199.878165404
21
3.48994967025
31
0.0
0
LINE
5
50
100
AcDbEntity
100
AcDbLine
8
3
62
256
370
-1
6
ByLayer
10
199.878165404
20
3.48994967025
30
0.0
11
199.725906951
21
5.23359562429
31
0.0
0
LINE
5
51
100
AcDbEntity
100
AcDbLine
8
3
62
256
370
-1
6
ByLayer
10
199.725906951
20
5.23359562429
30
0.0
11
199.512810052
21
6.97564737441
31
0.0
0
LINE
5
52
100
AcDbEntity
100
AcDbLine
8
3
62
256
370
-1
6
ByLayer
10
199.512810052
20
6.97564737441
30
0.0
11
199.238939618
21
8.71557427477
31
0.0
0
LINE
5
53
100
AcDbEntity
100
AcDbLine
8
3
62
256
370
-1
6
ByLayer
10
199.238939618
20
8.71557427477
30
0.0
11
198.904379074
21
10.4528463268
31
0.0
0
LINE
5
54
100
AcDbEntity
100
AcDbLine
8
3
62
256
370
-1
6
ByLayer
10
198.904379074
20
10.4528463268
30
0.0
11
198.509230328
21
12.1869343405
31
0.0
0
LINE
5
55
100
AcDbEntity
100
AcDbLine
8
3
62
256
370
-1
6
ByLayer
10
198.509230328
20
12.1869343405
30
0.0
11
198.053613748
21
13.917310096
31
0.0
0
LINE
5
56
100
AcDbEntity
100
AcDbLine
8
3
62
256
370
-1
6
ByLayer
10
198.053613748
20
13.917310096
30
0.0
11
197.537668119
21
15.643446504
31
0.0
0
LINE
5
57
100
AcDbEntity
100
AcDbLine
8
3
62
256
370
-1
6
ByLayer
10
197.537668119
20
15.643446504
30
0.0
11
196.961550602
21
17.3648177667
31
0.0
0
LINE
5
58
100
AcDbEntity
100
AcDbLine
8
3
62
256
370
-1
6
ByLayer
10
196.961550602
20
17.3648177667
30
0.0
11
196.32543669
21
19.0808995377
31
0.0
0
LINE
5
59
100
AcDbEntity
100
AcDbLine
8
3
62
256
370
-1
6
ByLayer
10
196.32543669
20
19.0808995377
30
0.0
11
195.629520147
21
20.7911690818
31
0.0
0
LINE
5
60
100
AcDbEntity
100
AcDbLine
8
3
62
256
370
-1
6
ByLayer
10
195.629520147
20
20.7911690818
30
0.0
11
194.874012957
21
22.4951054344
31
0.0
0
LINE
5
61
100
AcDbEntity
100
AcDbLine
8
3
62
256
370
-1
6
ByLayer
10
194.874012957
20
22.4951054344
30
0.0
11
194.059145255
21
24.19218956
31
0.0
0
LINE
5
62
100
AcDbEntity
100
AcDbLine
8
3
62
256
370
-1
6
ByLayer
10
194.059145255
20
24.19218956
30
0.0
11
193.185165258
21
25.8819045103
31
0.0
0
LINE
5
63
100
AcDbEntity
100
AcDbLine
8
3
62
256
370
-1
6
ByLayer
10
193.185165258
20
25.8819045103
30
0.0
11
192.252339188
21
27.5637355817
31
0.0
0
LINE
5
64
100
AcDbEntity
100
AcDbLine
8
3
62
256
370
-1
6
ByLayer
10
192.252339188
20
27.5637355817
30
0.0
11
191.260951193
21
29.2371704723
31
0.0
0
LINE
5
65
100
AcDbEntity
100
AcDbLine
8
3
62
256
370
-1
6
ByLayer
10
191.260951193
20
29.2371704723
30
0.0
11
190.211303259
21
30.9016994375
31
0.0
0
LINE
5
66
100
AcDbEntity
100
AcDbLine
8
3
62
256
370
-1
6
ByLayer
10
190.211303259
20
30.9016994375
30
0.0
11
189.10371512
21
32.5568154457
31
0.0
0
LINE
5
67
100
AcDbEntity
100
AcDbLine
8
3
62
256
370
-1
6
ByLayer
10
189.10371512
20
32.5568154457
30
0.0
11
187.938524157
21
34.2020143326
31
0.0
0
LINE
5
68
100
AcDbEntity
100
AcDbLine
8
3
62
256
370
-1
6
ByLayer
10
187.938524157
20
34.2020143326
30
0.0
11
186.716085299
21
35.8367949545
31
0.0
0
LINE
5
69
100
AcDbEntity
100
AcDbLine
8
3
62
256
370
-1
6
ByLayer
10
186.716085299
20
35.8367949545
30
0.0
11
185.436770913
21
37.4606593416
31
0.0
0
LINE
5
70
100
AcDbEntity
100
AcDbLine
8
3
62
256
370
-1
6
ByLayer
10
185.436770913
20
37.4606593416
30
0.0
11
184.10097069
21
39.0731128489
31
0.0
0
LINE
5
71
100
AcDbEntity
100
AcDbLine
8
3
62
256
370
-1
6
ByLayer
10
184.10097069
20
39.0731128489
30
0.0
11
182.709091529
21
40.6736643076
31
0.0
0
LINE
5
72
100
AcDbEntity
100
AcDbLine
8
3
62
256
370
-1
6
ByLayer
10
182.709091529
20
40.6736643076
30
0.0
11
181.261557407
21
42.2618261741
31
0.0
0
LINE
5
73
100
AcDbEntity
100
AcDbLine
8
3
62
256
370
-1
6
ByLayer
10
181.261557407
20
42.2618261741
30
0.0
11
179.75880926
21
43.8371146789
31
0.0
0
LINE
5
74
100
AcDbEntity
100
AcDbLine
8
3
62
256
370
-1
6
ByLayer
10
179.75880926
20
43.8371146789
30
0.0
11
178.201304838
21
45.399049974
31
0.0
0
LINE
5
75
100
AcDbEntity
100
AcDbLine
8
3
62
256
370
-1
6
ByLayer
10
178.201304838
20
45.399049974
30
0.0
11
176.589518572
21
46.9471562786
31
0.0
0
LINE
5
76
100
AcDbEntity
100
AcDbLine
8
3
62
256
370
-1
6
ByLayer
10
176.589518572
20
46.9471562786
30
0.0
11
174.923941428
21
48.4809620246
31
0.0
0
LINE
5
77
100
AcDbEntity
100
AcDbLine
8
3
62
256
370
-1
6
ByLayer
10
174.923941428
20
48.4809620246
30
0.0
11
173.205080757
21
50.0
31
0.0
0
LINE
5
78
100
AcDbEntity
100
AcDbLine
8
3
62
256
370
-1
6
ByLayer
10
173.205080757
20
50.0
30
0.0
11
171.43346014
21
51.503807491
31
0.0
0
LINE
5
79
100
AcDbEntity
100
AcDbLine
8
3
62
256
370
-1
6
ByLayer
10
171.43346014
20
51.503807491
30
0.0
11
169.609619231
21
52.9919264233
31
0.0
0
LINE
5
80
100
AcDbEntity
100
AcDbLine
8
3
62
256
370
-1
6
ByLayer
10
169.609619231
20
52.9919264233
30
0.0
11
167.734113589
21
54.4639035015
31
0.0
0
LINE
5
81
100
AcDbEntity
100
AcDbLine
8
3
62
256
370
-1
6
ByLayer
10
167.734113589
20
54.4639035015
30
0.0
11
165.807514511
21
55.9192903471
31
0.0
0
LINE
5
82
100
AcDbEntity
100
AcDbLine
8
3
62
256
370
-1
6
ByLayer
10
165.807514511
20
55.9192903471
30
0.0
11
163.830408858
21
57.3576436351
31
0.0
0
LINE
5
83
100
AcDbEntity
100
AcDbLine
8
3
62
256
370
-1
6
ByLayer
10
163.830408858
20
57.3576436351
30
0.0
11
161.803398875
21
58.7785252292
31
0.0
0
LINE
5
84
100
AcDbEntity
100
AcDbLine
8
3
62
256
370
-1
6
ByLayer
10
161.803398875
20
58.7785252292
30
0.0
11
159.727102009
21
60.1815023152
31
0.0
0
LINE
5
85
100
AcDbEntity
100
AcDbLine
8
3
62
256
370
-1
6
ByLayer
10
159.727102009
20
60.1815023152
30
0.0
11
157.602150721
21
61.5661475326
31
0.0
0
LINE
5
86
100
AcDbEntity
100
AcDbLine
8
3
62
256
370
-1
6
ByLayer
10
157.602150721
20
61.5661475326
30
0.0
11
155.429192291
21
62.932039105
31
0.0
0
LINE
5
87
100
AcDbEntity
100
AcDbLine
8
3
62
256
370
-1
6
ByLayer
10
155.429192291
20
62.932039105
30
0.0
11
153.208888624
21
64.2787609687
31
0.0
0
LINE
5
88
100
AcDbEntity
100
AcDbLine
8
3
62
256
370
-1
6
ByLayer
10
153.208888624
20
64.2787609687
30
0.0
11
150.941916045
21
65.6059028991
31
0.0
0
LINE
5
89
100
AcDbEntity
100
AcDbLine
8
3
62
256
370
-1
6
ByLayer
10
150.941916045
20
65.6059028991
30
0.0
11
148.628965095
21
66.9130606359
31
0.0
0
LINE
5
90
100
AcDbEntity
100
AcDbLine
8
3
62
256
370
-1
6
ByLayer
10
148.628965095
20
66.9130606359
30
0.0
11
146.270740324
21
68.1998360062
31
0.0
0
LINE
5
91
100
AcDbEntity
100
AcDbLine
8
3
62
256
370
-1
6
ByLayer
10
146.270740324
20
68.1998360062
30
0.0
11
143.867960068
21
69.4658370459
31
0.0
0
LINE
5
92
100
AcDbEntity
100
AcDbLine
8
3
62
256
370
-1
6
ByLayer
10
143.867960068
20
69.4658370459
30
0.0
11
141.421356237
21
70.7106781187
31
0.0
0
LINE
5
93
100
AcDbEntity
100
AcDbLine
8
3
62
256
370
-1
6
ByLayer
10
141.421356237
20
70.7106781187
30
0.0
11
138.931674092
21
71.9339800339
31
0.0
0
LINE
5
94
100
AcDbEntity
100
AcDbLine
8
3
62
256
370
-1
6
ByLayer
10
138.931674092
20
71.9339800339
30
0.0
11
136.399672012
21
73.1353701619
31
0.0
0
LINE
5
95
100
AcDbEntity
100
AcDbLine
8
3
62
256
370
-1
6
ByLayer
10
136.399672012
20
73.1353701619
30
0.0
11
133.826121272
21
74.3144825477
31
0.0
0
LINE
5
96
100
AcDbEntity
100
AcDbLine
8
3
62
256
370
-1
6
ByLayer
10
133.826121272
20
74.3144825477
30
0.0
11
131.211805798
21
75.4709580223
31
0.0
0
LINE
5
97
100
AcDbEntity
100
AcDbLine
8
3
62
256
370
-1
6
ByLayer
10
131.211805798
20
75.4709580223
30
0.0
11
128.557521937
21
76.6044443119
31
0.0
0
LINE
5
98
100
AcDbEntity
100
AcDbLine
8
3
62
256
370
-1
6
ByLayer
10
128.557521937
20
76.6044443119
30
0.0
11
125.86407821
21
77.7145961457
31
0.0
0
LINE
5
99
100
AcDbEntity
100
AcDbLine
8
3
62
256
370
-1
6
ByLayer
10
125.86407821
20
77.7145961457
30
0.0
11
123.132295065
21
78.8010753607
31
0.0
0
LINE
5
100
100
AcDbEntity
100
AcDbLine
8
3
62
256
370
-1
6
ByLayer
10
123.132295065
20
78.8010753607
30
0.0
11
120.36300463
21
79.8635510047
31
0.0
0
LINE
5
101
100
AcDbEntity
100
AcDbLine
8
3
62
256
370
-1
6
ByLayer
10
120.36300463
20
79.8635510047
30
0.0
11
117.557050458
21
80.9016994375
31
0.0
0
LINE
5
102
100
AcDbEntity
100
AcDbLine
8
3
62
256
370
-1
6
ByLayer
10
117.557050458
20
80.9016994375
30
0.0
11
114.71528727
21
81.9152044289
31
0.0
0
LINE
5
103
100
AcDbEntity
100
AcDbLine
8
3
62
256
370
-1
6
ByLayer
10
114.71528727
20
81.9152044289
30
0.0
11
111.838580694
21
82.9037572555
31
0.0
0
LINE
5
104
100
AcDbEntity
100
AcDbLine
8
3
62
256
370
-1
6
ByLayer
10
111.838580694
20
82.9037572555
30
0.0
11
108.927807003
21
83.8670567945
31
0.0
0
LINE
5
105
100
AcDbEntity
100
AcDbLine
8
3
62
256
370
-1
6
ByLayer
10
108.927807003
20
83.8670567945
30
0.0
11
105.983852847
21
84.8048096156
31
0.0
0
LINE
5
106
100
AcDbEntity
100
AcDbLine
8
3
62
256
370
-1
6
ByLayer
10
105.983852847
20
84.8048096156
30
0.0
11
103.007614982
21
85.7167300702
31
0.0
0
LINE
5
107
100
AcDbEntity
100
AcDbLine
8
3
62
256
370
-1
6
ByLayer
10
103.007614982
20
85.7167300702
30
0.0
11
100.0
21
86.6025403784
31
0.0
0
LINE
5
108
100
AcDbEntity
100
AcDbLine
8
3
62
256
370
-1
6
ByLayer
10
100.0
20
86.6025403784
30
0.0
11
96.9619240493
21
87.4619707139
31
0.0
0
LINE
5
109
100
AcDbEntity
100
AcDbLine
8
3
62
256
370
-1
6
ByLayer
10
96.9619240493
20
87.4619707139
30
0.0
11
93.8943125572
21
88.2947592859
31
0.0
0
LINE
5
110
100
AcDbEntity
100
AcDbLine
8
3
62
256
370
-1
6
ByLayer
10
93.8943125572
20
88.2947592859
30
0.0
11
90.7980999479
21
89.1006524188
31
0.0
0
LINE
5
111
100
AcDbEntity
100
AcDbLine
8
3
62
256
370
-1
6
ByLayer
10
90.7980999479
20
89.1006524188
30
0.0
11
87.6742293578
21
89.8794046299
31
0.0
0
LINE
5
112
100
AcDbEntity
100
AcDbLine
8
3
62
256
370
-1
6
ByLayer
10
87.6742293578
20
89.8794046299
30
0.0
11
84.5236523481
21
90.6307787037
31
0.0
0
LINE
5
113
100
AcDbEntity
100
AcDbLine
8
3
62
256
370
-1
6
ByLayer
10
84.5236523481
20
90.6307787037
30
0.0
11
81.3473286152
21
91.3545457643
31
0.0
0
LINE
5
114
100
AcDbEntity
100
AcDbLine
8
3
62
256
370
-1
6
ByLayer
10
81.3473286152
20
91.3545457643
30
0.0
11
78.1462256979
21
92.0504853452
31
0.0
0
LINE
5
115
100
AcDbEntity
100
AcDbLine
8
3
62
256
370
-1
6
ByLayer
10
78.1462256979
20
92.0504853452
30
0.0
11
74.9213186832
21
92.7183854567
31
0.0
0
LINE
5
116
100
AcDbEntity
100
AcDbLine
8
3
62
256
370
-1
6
ByLayer
10
74.9213186832
20
92.7183854567
30
0.0
11
71.6735899091
21
93.3580426497
31
0.0
0
LINE
5
117
100
AcDbEntity
100
AcDbLine
8
3
62
256
370
-1
6
ByLayer
10
71.6735899091
20
93.3580426497
30
0.0
11
68.4040286651
21
93.9692620786
31
0.0
0
LINE
5
118
100
AcDbEntity
100
AcDbLine
8
3
62
256
370
-1
6
ByLayer
10
68.4040286651
20
93.9692620786
30
0.0
11
65.1136308914
21
94.5518575599
31
0.0
0
LINE
5
119
100
AcDbEntity
100
AcDbLine
8
3
62
256
370
-1
6
ByLayer
10
65.1136308914
20
94.5518575599
30
0.0
11
61.803398875
21
95.1056516295
31
0.0
0
LINE
5
120
100
AcDbEntity
100
AcDbLine
8
3
62
256
370
-1
6
ByLayer
10
61.803398875
20
95.1056516295
30
0.0
11
58.4743409445
21
95.6304755963
31
0.0
0
LINE
5
121
100
AcDbEntity
100
AcDbLine
8
3
62
256
370
-1
6
ByLayer
10
58.4743409445
20
95.6304755963
30
0.0
11
55.1274711634
21
96.1261695938
31
0.0
0
LINE
5
122
100
AcDbEntity
100
AcDbLine
8
3
62
256
370
-1
6
ByLayer
10
55.1274711634
20
96.1261695938
30
0.0
11
51.7638090205
21
96.5925826289
31
0.0
0
LINE
5
123
100
AcDbEntity
100
AcDbLine
8
3
62
256
370
-1
6
ByLayer
10
51.7638090205
20
96.5925826289
30
0.0
11
48.3843791199
21
97.0295726276
31
0.0
0
LINE
5
124
100
AcDbEntity
100
AcDbLine
8
3
62
256
370
-1
6
ByLayer
10
48.3843791199
20
97.0295726276
30
0.0
11
44.9902108688
21
97.4370064785
31
0.0
0
LINE
5
125
100
AcDbEntity
100
AcDbLine
8
3
62
256
370
-1
6
ByLayer
10
44.9902108688
20
97.4370064785
30
0.0
11
41.5823381636
21
97.8147600734
31
0.0
0
LINE
5
126
100
AcDbEntity
100
AcDbLine
8
3
62
256
370
-1
6
ByLayer
10
41.5823381636
20
97.8147600734
30
0.0
11
38.1617990753
21
98.1627183448
31
0.0
0
LINE
5
127
100
AcDbEntity
100
AcDbLine
8
3
62
256
370
-1
6
ByLayer
10
38.1617990753
20
98.1627183448
30
0.0
11
34.7296355334
21
98.4807753012
31
0.0
0
LINE
5
128
100
AcDbEntity
100
AcDbLine
8
3
62
256
370
-1
6
ByLayer
10
34.7296355334
20
98.4807753012
30
0.0
11
31.286893008
21
98.7688340595
31
0.0
0
LINE
5
129
100
AcDbEntity
100
AcDbLine
8
3
62
256
370
-1
6
ByLayer
10
31.286893008
20
98.7688340595
30
0.0
11
27.834620192
21
99.0268068742
31
0.0
0
LINE
5
130
100
AcDbEntity
100
AcDbLine
8
3
62
256
370
-1
6
ByLayer
10
27.834620192
20
99.0268068742
30
0.0
11
24.373868681
21
99.2546151641
31
0.0
0
LINE
5
131
100
AcDbEntity
100
AcDbLine
8
3
62
256
370
-1
6
ByLayer
10
24.373868681
20
99.2546151641
30
0.0
11
20.9056926535
21
99.4521895368
31
0.0
0
LINE
5
132
100
AcDbEntity
100
AcDbLine
8
3
62
256
370
-1
6
ByLayer
10
20.9056926535
20
99.4521895368
30
0.0
11
17.4311485495
21
99.6194698092
31
0.0
0
LINE
5
133
100
AcDbEntity
100
AcDbLine
8
3
62
256
370
-1
6
ByLayer
10
17.4311485495
20
99.6194698092
30
0.0
11
13.9512947488
21
99.756405026
31
0.0
0
LINE
5
134
100
AcDbEntity
100
AcDbLine
8
3
62
256
370
-1
6
ByLayer
10
13.9512947488
20
99.756405026
30
0.0
11
10.4671912486
21
99.8629534755
31
0.0
0
LINE
5
135
100
AcDbEntity
100
AcDbLine
8
3
62
256
370
-1
6
ByLayer
10
10.4671912486
20
99.8629534755
30
0.0
11
6.9798993405
21
99.9390827019
31
0.0
0
LINE
5
136
100
AcDbEntity
100
AcDbLine
8
3
62
256
370
-1
6
ByLayer
10
6.9798993405
20
99.9390827019
30
0.0
11
3.49048128746
21
99.9847695156
31
0.0
0
LINE
5
137
100
AcDbEntity
100
AcDbLine
8
3
62
256
370
-1
6
ByLayer
10
3.49048128746
20
99.9847695156
30
0.0
11
1.22460635382e-14
21
100.0
31
0.0
0
LINE
5
138
100
AcDbEntity
100
AcDbLine
8
3
62
256
370
-1
6
ByLayer
10
1.22460635382e-14
20
100.0
30
0.0
11
-3.49048128746
21
99.9847695156
31
0.0
0
LINE
5
139
100
AcDbEntity
100
AcDbLine
8
3
62
256
370
-1
6
ByLayer
10
-3.49048128746
20
99.9847695156
30
0.0
11
-6.9798993405
21
99.9390827019
31
0.0
0
LINE
5
140
100
AcDbEntity
100
AcDbLine
8
3
62
256
370
-1
6
ByLayer
10
-6.9798993405
20
99.9390827019
30
0.0
11
-10.4671912486
21
99.8629534755
31
0.0
0
LINE
5
141
100
AcDbEntity
100
AcDbLine
8
3
62
256
370
-1
6
ByLayer
10
-10.4671912486
20
99.8629534755
30
0.0
11
-13.9512947488
21
99.756405026
31
0.0
0
LINE
5
142
100
AcDbEntity
100
AcDbLine
8
3
62
256
370
-1
6
ByLayer
10
-13.9512947488
20
99.756405026
30
0.0
11
-17.4311485495
21
99.6194698092
31
0.0
0
LINE
5
143
100
AcDbEntity
100
AcDbLine
8
3
62
256
370
-1
6
ByLayer
10
-17.4311485495
20
99.6194698092
30
0.0
11
-20.9056926535
21
99.4521895368
31
0.0
0
LINE
5
144
100
AcDbEntity
100
AcDbLine
8
3
62
256
370
-1
6
ByLayer
10
-20.9056926535
20
99.4521895368
30
0.0
11
-24.373868681
21
99.2546151641
31
0.0
0
LINE
5
145
100
AcDbEntity
100
AcDbLine
8
3
62
256
370
-1
6
ByLayer
10
-24.373868681
20
99.2546151641
30
0.0
11
-27.834620192
21
99.0268068742
31
0.0
0
LINE
5
146
100
AcDbEntity
100
AcDbLine
8
3
62
256
370
-1
6
ByLayer
10
-27.834620192
20
99.0268068742
30
0.0
11
-31.286893008
21
98.7688340595
31
0.0
0
LINE
5
147
100
AcDbEntity
100
AcDbLine
8
3
62
256
370
-1
6
ByLayer
10
-31.286893008
20
98.7688340595
30
0.0
11
-34.7296355334
21
98.4807753012
31
0.0
0
LINE
5
148
100
AcDbEntity
100
AcDbLine
8
3
62
256
370
-1
6
ByLayer
10
-34.7296355334
20
98.4807753012
30
0.0
11
-38.1617990753
21
98.1627183448
31
0.0
0
LINE
5
149
100
AcDbEntity
100
AcDbLine
8
3
62
256
370
-1
6
ByLayer
10
-38.1617990753
20
98.1627183448
30
0.0
11
-41.5823381636
21
97.8147600734
31
0.0
0
LINE
5
150
100
AcDbEntity
100
AcDbLine
8
3
62
256
370
-1
6
ByLayer
10
-41.5823381636
20
97.8147600734
30
0.0
11
-44.9902108688
21
97.4370064785
31
0.0
0
LINE
5
151
100
AcDbEntity
100
AcDbLine
8
3
62
256
370
-1
6
ByLayer
10
-44.9902108688
20
97.4370064785
30
0.0
11
-48.3843791199
21
97.0295726276
31
0.0
0
LINE
5
152
100
AcDbEntity
100
AcDbLine
8
3
62
256
370
-1
6
ByLayer
10
-48.3843791199
20
97.0295726276
30
0.0
11
-51.7638090205
21
96.5925826289
31
0.0
0
LINE
5
153
100
AcDbEntity
100
AcDbLine
8
3
62
256
370
-1
6
ByLayer
10
-51.7638090205
20
96.5925826289
30
0.0
11
-55.1274711634
21
96.1261695938
31
0.0
0
LINE
5
154
100
AcDbEntity
100
AcDbLine
8
3
62
256
370
-1
6
ByLayer
10
-55.1274711634
20
96.1261695938
30
0.0
11
-58.4743409445
21
95.6304755963
31
0.0
0
LINE
5
155
100
AcDbEntity
100
AcDbLine
8
3
62
256
370
-1
6
ByLayer
10
-58.4743409445
20
95.6304755963
30
0.0
11
-61.803398875
21
95.1056516295
31
0.0
0
LINE
5
156
100
AcDbEntity
100
AcDbLine
8
3
62
256
370
-1
6
ByLayer
10
-61.803398875
20
95.1056516295
30
0.0
11
-65.1136308914
21
94.5518575599
31
0.0
0
LINE
5
157
100
AcDbEntity
100
AcDbLine
8
3
62
256
370
-1
6
ByLayer
10
-65.1136308914
20
94.5518575599
30
0.0
11
-68.4040286651
21
93.9692620786
31
0.0
0
LINE
5
158
100
AcDbEntity
100
AcDbLine
8
3
62
256
370
-1
6
ByLayer
10
-68.4040286651
20
93.9692620786
30
0.0
11
-71.6735899091
21
93.3580426497
31
0.0
0
LINE
5
159
100
AcDbEntity
100
AcDbLine
8
3
62
256
370
-1
6
ByLayer
10
-71.6735899091
20
93.3580426497
30
0.0
11
-74.9213186832
21
92.7183854567
31
0.0
0
LINE
5
160
100
AcDbEntity
100
AcDbLine
8
3
62
256
370
-1
6
ByLayer
10
-74.9213186832
20
92.7183854567
30
0.0
11
-78.1462256979
21
92.0504853452
31
0.0
0
LINE
5
161
100
AcDbEntity
100
AcDbLine
8
3
62
256
370
-1
6
ByLayer
10
-78.1462256979
20
92.0504853452
30
0.0
11
-81.3473286152
21
91.3545457643
31
0.0
0
LINE
5
162
100
AcDbEntity
100
AcDbLine
8
3
62
256
370
-1
6
ByLayer
10
-81.3473286152
20
91.3545457643
30
0.0
11
-84.5236523481
21
90.6307787037
31
0.0
0
LINE
5
163
100
AcDbEntity
100
AcDbLine
8
3
62
256
370
-1
6
ByLayer
10
-84.5236523481
20
90.6307787037
30
0.0
11
-87.6742293578
21
89.8794046299
31
0.0
0
LINE
5
164
100
AcDbEntity
100
AcDbLine
8
3
62
256
370
-1
6
ByLayer
10
-87.6742293578
20
89.8794046299
30
0.0
11
-90.7980999479
21
89.1006524188
31
0.0
0
LINE
5
165
100
AcDbEntity
100
AcDbLine
8
3
62
256
370
-1
6
ByLayer
10
-90.7980999479
20
89.1006524188
30
0.0
11
-93.8943125572
21
88.2947592859
31
0.0
0
LINE
5
166
100
AcDbEntity
100
AcDbLine
8
3
62
256
370
-1
6
ByLayer
10
-93.8943125572
20
88.2947592859
30
0.0
11
-96.9619240493
21
87.4619707139
31
0.0
0
LINE
5
167
100
AcDbEntity
100
AcDbLine
8
3
62
256
370
-1
6
ByLayer
10
-96.9619240493
20
87.4619707139
30
0.0
11
-100.0
21
86.6025403784
31
0.0
0
LINE
5
168
100
AcDbEntity
100
AcDbLine
8
3
62
256
370
-1
6
ByLayer
10
-100.0
20
86.6025403784
30
0.0
11
-103.007614982
21
85.7167300702
31
0.0
0
LINE
5
169
100
AcDbEntity
100
AcDbLine
8
3
62
256
370
-1
6
ByLayer
10
-103.007614982
20
85.7167300702
30
0.0
11
-105.983852847
21
84.8048096156
31
0.0
0
LINE
5
170
100
AcDbEntity
100
AcDbLine
8
3
62
256
370
-1
6
ByLayer
10
-105.983852847
20
84.8048096156
30
0.0
11
-108.927807003
21
83.8670567945
31
0.0
0
LINE
5
171
100
AcDbEntity
100
AcDbLine
8
3
62
256
370
-1
6
ByLayer
10
-108.927807003
20
83.8670567945
30
0.0
11
-111.838580694
21
82.9037572555
31
0.0
0
LINE
5
172
100
AcDbEntity
100
AcDbLine
8
3
62
256
370
-1
6
ByLayer
10
-111.838580694
20
82.9037572555
30
0.0
11
-114.71528727
21
81.9152044289
31
0.0
0
LINE
5
173
100
AcDbEntity
100
AcDbLine
8
3
62
256
370
-1
6
ByLayer
10
-114.71528727
20
81.9152044289
30
0.0
11
-117.557050458
21
80.9016994375
31
0.0
0
LINE
5
174
100
AcDbEntity
100
AcDbLine
8
3
62
256
370
-1
6
ByLayer
10
-117.557050458
20
80.9016994375
30
0.0
11
-120.36300463
21
79.8635510047
31
0.0
0
LINE
5
175
100
AcDbEntity
100
AcDbLine
8
3
62
256
370
-1
6
ByLayer
10
-120.36300463
20
79.8635510047
30
0.0
11
-123.132295065
21
78.8010753607
31
0.0
0
LINE
5
176
100
AcDbEntity
100
AcDbLine
8
3
62
256
370
-1
6
ByLayer
10
-123.132295065
20
78.8010753607
30
0.0
11
-125.86407821
21
77.7145961457
31
0.0
0
LINE
5
177
100
AcDbEntity
100
AcDbLine
8
3
62
256
370
-1
6
ByLayer
10
-125.86407821
20
77.7145961457
30
0.0
11
-128.557521937
21
76.6044443119
31
0.0
0
LINE
5
178
100
AcDbEntity
100
AcDbLine
8
3
62
256
370
-1
6
ByLayer
10
-128.557521937
20
76.6044443119
30
0.0
11
-131.211805798
21
75.4709580223
31
0.0
0
LINE
5
179
100
AcDbEntity
100
AcDbLine
8
3
62
256
370
-1
6
ByLayer
10
-131.211805798
20
75.4709580223
30
0.0
11
-133.826121272
21
74.3144825477
31
0.0
0
LINE
5
180
100
AcDbEntity
100
AcDbLine
8
3
62
256
370
-1
6
ByLayer
10
-133.826121272
20
74.3144825477
30
0.0
11
-136.399672012
21
73.1353701619
31
0.0
0
LINE
5
181
100
AcDbEntity
100
AcDbLine
8
3
62
256
370
-1
6
ByLayer
10
-136.399672012
20
73.1353701619
30
0.0
11
-138.931674092
21
71.9339800339
31
0.0
0
LINE
5
182
100
AcDbEntity
100
AcDbLine
8
3
62
256
370
-1
6
ByLayer
10
-138.931674092
20
71.9339800339
30
0.0
11
-141.421356237
21
70.7106781187
31
0.0
0
LINE
5
183
100
AcDbEntity
100
AcDbLine
8
3
62
256
370
-1
6
ByLayer
10
-141.421356237
20
70.7106781187
30
0.0
11
-143.867960068
21
69.4658370459
31
0.0
0
LINE
5
184
100
AcDbEntity
100
AcDbLine
8
3
62
256
370
-1
6
ByLayer
10
-143.867960068
20
69.4658370459
30
0.0
11
-146.270740324
21
68.1998360062
31
0.0
0
LINE
5
185
100
AcDbEntity
100
AcDbLine
8
3
62
256
370
-1
6
ByLayer
10
-146.270740324
20
68.1998360062
30
0.0
11
-148.628965095
21
66.9130606359
31
0.0
0
LINE
5
186
100
AcDbEntity
100
AcDbLine
8
3
62
256
370
-1
6
ByLayer
10
-148.628965095
20
66.9130606359
30
0.0
11
-150.941916045
21
65.6059028991
31
0.0
0
LINE
5
187
100
AcDbEntity
100
AcDbLine
8
3
62
256
370
-1
6
ByLayer
10
-150.941916045
20
65.6059028991
30
0.0
11
-153.208888624
21
64.2787609687
31
0.0
0
LINE
5
188
100
AcDbEntity
100
AcDbLine
8
3
62
256
370
-1
6
ByLayer
10
-153.208888624
20
64.2787609687
30
0.0
11
-155.429192291
21
62.932039105
31
0.0
0
LINE
5
189
100
AcDbEntity
100
AcDbLine
8
3
62
256
370
-1
6
ByLayer
10
-155.429192291
20
62.932039105
30
0.0
11
-157.602150721
21
61.5661475326
31
0.0
0
LINE
5
190
100
AcDbEntity
100
AcDbLine
8
3
62
256
370
-1
6
ByLayer
10
-157.602150721
20
61.5661475326
30
0.0
11
-159.727102009
21
60.1815023152
31
0.0
0
LINE
5
191
100
AcDbEntity
100
AcDbLine
8
3
62
256
370
-1
6
ByLayer
10
-159.727102009
20
60.1815023152
30
0.0
11
-161.803398875
21
58.7785252292
31
0.0
0
LINE
5
192
100
AcDbEntity
100
AcDbLine
8
3
62
256
370
-1
6
ByLayer
10
-161.803398875
20
58.7785252292
30
0.0
11
-163.830408858
21
57.3576436351
31
0.0
0
LINE
5
193
100
AcDbEntity
100
AcDbLine
8
3
62
256
370
-1
6
ByLayer
10
-163.830408858
20
57.3576436351
30
0.0
11
-165.807514511
21
55.9192903471
31
0.0
0
LINE
5
194
100
AcDbEntity
100
AcDbLine
8
3
62
256
370
-1
6
ByLayer
10
-165.807514511
20
55.9192903471
30
0.0
11
-167.734113589
21
54.4639035015
31
0.0
0
LINE
5
195
100
AcDbEntity
100
AcDbLine
8
3
62
256
370
-1
6
ByLayer
10
-167.734113589
20
54.4639035015
30
0.0
11
-169.609619231
21
52.9919264233
31
0.0
0
LINE
5
196
100
AcDbEntity
100
AcDbLine
8
3
62
256
370
-1
6
ByLayer
10
-169.609619231
20
52.9919264233
30
0.0
11
-171.43346014
21
51.503807491
31
0.0
0
LINE
5
197
100
AcDbEntity
100
AcDbLine
8
3
62
256
370
-1
6
ByLayer
10
-171.43346014
20
51.503807491
30
0.0
11
-173.205080757
21
50.0
31
0.0
0
LINE
5
198
100
AcDbEntity
100
AcDbLine
8
3
62
256
370
-1
6
ByLayer
10
-173.205080757
20
50.0
30
0.0
11
-174.923941428
21
48.4809620246
31
0.0
0
LINE
5
199
100
AcDbEntity
100
AcDbLine
8
3
62
256
370
-1
6
ByLayer
10
-174.923941428
20
48.4809620246
30
0.0
11
-176.589518572
21
46.9471562786
31
0.0
0
LINE
5
200
100
AcDbEntity
100
AcDbLine
8
3
62
256
370
-1
6
ByLayer
10
-176.589518572
20
46.9471562786
30
0.0
11
-178.201304838
21
45.399049974
31
0.0
0
LINE
5
201
100
AcDbEntity
100
AcDbLine
8
3
62
256
370
-1
6
ByLayer
10
-178.201304838
20
45.399049974
30
0.0
11
-179.75880926
21
43.8371146789
31
0.0
0
LINE
5
202
100
AcDbEntity
100
AcDbLine
8
3
62
256
370
-1
6
ByLayer
10
-179.75880926
20
43.8371146789
30
0.0
11
-181.261557407
21
42.2618261741
31
0.0
0
LINE
5
203
100
AcDbEntity
100
AcDbLine
8
3
62
256
370
-1
6
ByLayer
10
-181.261557407
20
42.2618261741
30
0.0
11
-182.709091529
21
40.6736643076
31
0.0
0
LINE
5
204
100
AcDbEntity
100
AcDbLine
8
3
62
256
370
-1
6
ByLayer
10
-182.709091529
20
40.6736643076
30
0.0
11
-184.10097069
21
39.0731128489
31
0.0
0
LINE
5
205
100
AcDbEntity
100
AcDbLine
8
3
62
256
370
-1
6
ByLayer
10
-184.10097069
20
39.0731128489
30
0.0
11
-185.436770913
21
37.4606593416
31
0.0
0
LINE
5
206
100
AcDbEntity
100
AcDbLine
8
3
62
256
370
-1
6
ByLayer
10
-185.436770913
20
37.4606593416
30
0.0
11
-186.716085299
21
35.8367949545
31
0.0
0
LINE
5
207
100
AcDbEntity
100
AcDbLine
8
3
62
256
370
-1
6
ByLayer
10
-186.716085299
20
35.8367949545
30
0.0
11
-187.938524157
21
34.2020143326
31
0.0
0
LINE
5
208
100
AcDbEntity
100
AcDbLine
8
3
62
256
370
-1
6
ByLayer
10
-187.938524157
20
34.2020143326
30
0.0
11
-189.10371512
21
32.5568154457
31
0.0
0
LINE
5
209
100
AcDbEntity
100
AcDbLine
8
3
62
256
370
-1
6
ByLayer
10
-189.10371512
20
32.5568154457
30
0.0
11
-190.211303259
21
30.9016994375
31
0.0
0
LINE
5
210
100
AcDbEntity
100
AcDbLine
8
3
62
256
370
-1
6
ByLayer
10
-190.211303259
20
30.9016994375
30
0.0
11
-191.260951193
21
29.2371704723
31
0.0
0
LINE
5
211
100
AcDbEntity
100
AcDbLine
8
3
62
256
370
-1
6
ByLayer
10
-191.260951193
20
29.2371704723
30
0.0
11
-192.252339188
21
27.5637355817
31
0.0
0
LINE
5
212
100
AcDbEntity
100
AcDbLine
8
3
62
256
370
-1
6
ByLayer
10
-192.252339188
20
27.5637355817
30
0.0
11
-193.185165258
21
25.8819045103
31
0.0
0
LINE
5
213
100
AcDbEntity
100
AcDbLine
8
3
62
256
370
-1
6
ByLayer
10
-193.185165258
20
25.8819045103
30
0.0
11
-194.059145255
21
24.19218956
31
0.0
0
LINE
5
214
100
AcDbEntity
100
AcDbLine
8
3
62
256
370
-1
6
ByLayer
10
-194.059145255
20
24.19218956
30
0.0
11
-194.874012957
21
22.4951054344
31
0.0
0
LINE
5
215
100
AcDbEntity
100
AcDbLine
8
3
62
256
370
-1
6
ByLayer
10
-194.874012957
20
22.4951054344
30
0.0
11
-195.629520147
21
20.7911690818
31
0.0
0
LINE
5
216
100
AcDbEntity
100
AcDbLine
8
3
62
256
370
-1
6
ByLayer
10
-195.629520147
20
20.7911690818
30
0.0
11
-196.32543669
21
19.0808995377
31
0.0
0
LINE
5
217
100
AcDbEntity
100
AcDbLine
8
3
62
256
370
-1
6
ByLayer
10
-196.32543669
20
19.0808995377
30
0.0
11
-196.961550602
21
17.3648177667
31
0.0
0
LINE
5
218
100
AcDbEntity
100
AcDbLine
8
3
62
256
370
-1
6
ByLayer
10
-196.961550602
20
17.3648177667
30
0.0
11
-197.537668119
21
15.643446504
31
0.0
0
LINE
5
219
100
AcDbEntity
100
AcDbLine
8
3
62
256
370
-1
6
ByLayer
10
-197.537668119
20
15.643446504
30
0.0
11
-198.053613748
21
13.917310096
31
0.0
0
LINE
5
220
100
AcDbEntity
100
AcDbLine
8
3
62
256
370
-1
6
ByLayer
10
-198.053613748
20
13.917310096
30
0.0
11
-198.509230328
21
12.1869343405
31
0.0
0
LINE
5
221
100
AcDbEntity
100
AcDbLine
8
3
62
256
370
-1
6
ByLayer
10
-198.509230328
20
12.1869343405
30
0.0
11
-198.904379074
21
10.4528463268
31
0.0
0
LINE
5
222
100
AcDbEntity
100
AcDbLine
8
3
62
256
370
-1
6
ByLayer
10
-198.904379074
20
10.4528463268
30
0.0
11
-199.238939618
21
8.71557427477
31
0.0
0
LINE
5
223
100
AcDbEntity
100
AcDbLine
8
3
62
256
370
-1
6
ByLayer
10
-199.238939618
20
8.71557427477
30
0.0
11
-199.512810052
21
6.97564737441
31
0.0
0
LINE
5
224
100
AcDbEntity
100
AcDbLine
8
3
62
256
370
-1
6
ByLayer
10
-199.512810052
20
6.97564737441
30
0.0
11
-199.725906951
21
5.23359562429
31
0.0
0
LINE
5
225
100
AcDbEntity
100
AcDbLine
8
3
62
256
370
-1
6
ByLayer
10
-199.725906951
20
5.23359562429
30
0.0
11
-199.878165404
21
3.48994967025
31
0.0
0
LINE
5
226
100
AcDbEntity
100
AcDbLine
8
3
62
256
370
-1
6
ByLayer
10
-199.878165404
20
3.48994967025
30
0.0
11
-199.969539031
21
1.74524064373
31
0.0
0
LINE
5
227
100
AcDbEntity
100
AcDbLine
8
3
62
256
370
-1
6
ByLayer
10
-199.969539031
20
1.74524064373
30
0.0
11
-200.0
21
1.22460635382e-14
31
0.0
0
LINE
5
228
100
AcDbEntity
100
AcDbLine
8
3
62
256
370
-1
6
ByLayer
10
-200.0
20
1.22460635382e-14
30
0.0
11
-199.969539031
21
-1.74524064373
31
0.0
0
LINE
5
229
100
AcDbEntity
100
AcDbLine
8
3
62
256
370
-1
6
ByLayer
10
-199.969539031
20
-1.74524064373
30
0.0
11
-199.878165404
21
-3.48994967025
31
0.0
0
LINE
5
230
100
AcDbEntity
100
AcDbLine
8
3
62
256
370
-1
6
ByLayer
10
-199.878165404
20
-3.48994967025
30
0.0
11
-199.725906951
21
-5.23359562429
31
0.0
0
LINE
5
231
100
AcDbEntity
100
AcDbLine
8
3
62
256
370
-1
6
ByLayer
10
-199.725906951
20
-5.23359562429
30
0.0
11
-199.512810052
21
-6.97564737441
31
0.0
0
LINE
5
232
100
AcDbEntity
100
AcDbLine
8
3
62
256
370
-1
6
ByLayer
10
-199.512810052
20
-6.97564737441
30
0.0
11
-199.238939618
21
-8.71557427477
31
0.0
0
LINE
5
233
100
AcDbEntity
100
AcDbLine
8
3
62
256
370
-1
6
ByLayer
10
-199.238939618
20
-8.71557427477
30
0.0
11
-198.904379074
21
-10.4528463268
31
0.0
0
LINE
5
234
100
AcDbEntity
100
AcDbLine
8
3
62
256
370
-1
6
ByLayer
10
-198.904379074
20
-10.4528463268
30
0.0
11
-198.509230328
21
-12.1869343405
31
0.0
0
LINE
5
235
100
AcDbEntity
100
AcDbLine
8
3
62
256
370
-1
6
ByLayer
10
-198.509230328
20
-12.1869343405
30
0.0
11
-198.053613748
21
-13.917310096
31
0.0
0
LINE
5
236
100
AcDbEntity
100
AcDbLine
8
3
62
256
370
-1
6
ByLayer
10
-198.053613748
20
-13.917310096
30
0.0
11
-197.537668119
21
-15.643446504
31
0.0
0
LINE
5
237
100
AcDbEntity
100
AcDbLine
8
3
62
256
370
-1
6
ByLayer
10
-197.537668119
20
-15.643446504
30
0.0
11
-196.961550602
21
-17.3648177667
31
0.0
0
LINE
5
238
100
AcDbEntity
100
AcDbLine
8
3
62
256
370
-1
6
ByLayer
10
-196.961550602
20
-17.3648177667
30
0.0
11
-196.32543669
21
-19.0808995377
31
0.0
0
LINE
5
239
100
AcDbEntity
100
AcDbLine
8
3
62
256
370
-1
6
ByLayer
10
-196.32543669
20
-19.0808995377
30
0.0
11
-195.629520147
21
-20.7911690818
31
0.0
0
LINE
5
240
100
AcDbEntity
100
AcDbLine
8
3
62
256
370
-1
6
ByLayer
10
-195.629520147
20
-20.7911690818
30
0.0
11
-194.874012957
21
-22.4951054344
31
0.0
0
LINE
5
241
100
AcDbEntity
100
AcDbLine
8
3
62
256
370
-1
6
ByLayer
10
-194.874012957
20
-22.4951054344
30
0.0
11
-194.059145255
21
-24.19218956
31
0.0
0
LINE
5
242
100
AcDbEntity
100
AcDbLine
8
3
62
256
370
-1
6
ByLayer
10
-194.059145255
20
-24.19218956
30
0.0
11
-193.185165258
21
-25.8819045103
31
0.0
0
LINE
5
243
100
AcDbEntity
100
AcDbLine
8
3
62
256
370
-1
6
ByLayer
10
-193.185165258
20
-25.8819045103
30
0.0
11
-192.252339188
21
-27.5637355817
31
0.0
0
LINE
5
244
100
AcDbEntity
100
AcDbLine
8
3
62
256
370
-1
6
ByLayer
10
-192.252339188
20
-27.5637355817
30
0.0
11
-191.260951193
21
-29.2371704723
31
0.0
0
LINE
5
245
100
AcDbEntity
100
AcDbLine
8
3
62
256
370
-1
6
ByLayer
10
-191.260951193
20
-29.2371704723
30
0.0
11
-190.211303259
21
-30.9016994375
31
0.0
0
LINE
5
246
100
AcDbEntity
100
AcDbLine
8
3
62
256
370
-1
6
ByLayer
10
-190.211303259
20
-30.9016994375
30
0.0
11
-189.10371512
21
-32.5568154457
31
0.0
0
LINE
5
247
100
AcDbEntity
100
AcDbLine
8
3
62
256
370
-1
6
ByLayer
10
-189.10371512
20
-32.5568154457
30
0.0
11
-187.938524157
21
-34.2020143326
31
0.0
0
LINE
5
248
100
AcDbEntity
100
AcDbLine
8
3
62
256
370
-1
6
ByLayer
10
-187.938524157
20
-34.2020143326
30
0.0
11
-186.716085299
21
-35.8367949545
31
0.0
0
LINE
5
249
100
AcDbEntity
100
AcDbLine
8
3
62
256
370
-1
6
ByLayer
10
-186.716085299
20
-35.8367949545
30
0.0
11
-185.436770913
21
-37.4606593416
31
0.0
0
LINE
5
250
100
AcDbEntity
100
AcDbLine
8
3
62
256
370
-1
6
ByLayer
10
-185.436770913
20
-37.4606593416
30
0.0
11
-184.10097069
21
-39.0731128489
31
0.0
0
LINE
5
251
100
AcDbEntity
100
AcDbLine
8
3
62
256
370
-1
6
ByLayer
10
-184.10097069
20
-39.0731128489
30
0.0
11
-182.709091529
21
-40.6736643076
31
0.0
0
LINE
5
252
100
AcDbEntity
100
AcDbLine
8
3
62
256
370
-1
6
ByLayer
10
-182.709091529
20
-40.6736643076
30
0.0
11
-181.261557407
21
-42.2618261741
31
0.0
0
LINE
5
253
100
AcDbEntity
100
AcDbLine
8
3
62
256
370
-1
6
ByLayer
10
-181.261557407
20
-42.2618261741
30
0.0
11
-179.75880926
21
-43.8371146789
31
0.0
0
LINE
5
254
100
AcDbEntity
100
AcDbLine
8
3
62
256
370
-1
6
ByLayer
10
-179.75880926
20
-43.8371146789
30
0.0
11
-178.201304838
21
-45.399049974
31
0.0
0
LINE
5
255
100
AcDbEntity
100
AcDbLine
8
3
62
256
370
-1
6
ByLayer
10
-178.201304838
20
-45.399049974
30
0.0
11
-176.589518572
21
-46.9471562786
31
0.0
0
LINE
5
256
100
AcDbEntity
100
AcDbLine
8
3
62
256
370
-1
6
ByLayer
10
-176.589518572
20
-46.9471562786
30
0.0
11
-174.923941428
21
-48.4809620246
31
0.0
0
LINE
5
257
100
AcDbEntity
100
AcDbLine
8
3
62
256
370
-1
6
ByLayer
10
-174.923941428
20
-48.4809620246
30
0.0
11
-173.205080757
21
-50.0
31
0.0
0
LINE
5
258
100
AcDbEntity
100
AcDbLine
8
3
62
256
370
-1
6
ByLayer
10
-173.205080757
20
-50.0
30
0.0
11
-171.43346014
21
-51.503807491
31
0.0
0
LINE
5
259
100
AcDbEntity
100
AcDbLine
8
3
62
256
370
-1
6
ByLayer
10
-171.43346014
20
-51.503807491
30
0.0
11
-169.609619231
21
-52.9919264233
31
0.0
0
LINE
5
260
100
AcDbEntity
100
AcDbLine
8
3
62
256
370
-1
6
ByLayer
10
-169.609619231
20
-52.9919264233
30
0.0
11
-167.734113589
21
-54.4639035015
31
0.0
0
LINE
5
261
100
AcDbEntity
100
AcDbLine
8
3
62
256
370
-1
6
ByLayer
10
-167.734113589
20
-54.4639035015
30
0.0
11
-165.807514511
21
-55.9192903471
31
0.0
0
LINE
5
262
100
AcDbEntity
100
AcDbLine
8
3
62
256
370
-1
6
ByLayer
10
-165.807514511
20
-55.9192903471
30
0.0
11
-163.830408858
21
-57.3576436351
31
0.0
0
LINE
5
263
100
AcDbEntity
100
AcDbLine
8
3
62
256
370
-1
6
ByLayer
10
-163.830408858
20
-57.3576436351
30
0.0
11
-161.803398875
21
-58.7785252292
31
0.0
0
LINE
5
264
100
AcDbEntity
100
AcDbLine
8
3
62
256
370
-1
6
ByLayer
10
-161.803398875
20
-58.7785252292
30
0.0
11
-159.727102009
21
-60.1815023152
31
0.0
0
LINE
5
265
100
AcDbEntity
100
AcDbLine
8
3
62
256
370
-1
6
ByLayer
10
-159.727102009
20
-60.1815023152
30
0.0
11
-157.602150721
21
-61.5661475326
31
0.0
0
LINE
5
266
100
AcDbEntity
100
AcDbLine
8
3
62
256
370
-1
6
ByLayer
10
-157.602150721
20
-61.5661475326
30
0.0
11
-155.429192291
21
-62.932039105
31
0.0
0
LINE
5
267
100
AcDbEntity
100
AcDbLine
8
3
62
256
370
-1
6
ByLayer
10
-155.429192291
20
-62.932039105
30
0.0
11
-153.208888624
21
-64.2787609687
31
0.0
0
LINE
5
268
100
AcDbEntity
100
AcDbLine
8
3
62
256
370
-1
6
ByLayer
10
-153.208888624
20
-64.2787609687
30
0.0
11
-150.941916045
21
-65.6059028991
31
0.0
0
LINE
5
269
100
AcDbEntity
100
AcDbLine
8
3
62
256
370
-1
6
ByLayer
10
-150.941916045
20
-65.6059028991
30
0.0
11
-148.628965095
21
-66.9130606359
31
0.0
0
LINE
5
270
100
AcDbEntity
100
AcDbLine
8
3
62
256
370
-1
6
ByLayer
10
-148.628965095
20
-66.9130606359
30
0.0
11
-146.270740324
21
-68.1998360062
31
0.0
0
LINE
5
271
100
AcDbEntity
100
AcDbLine
8
3
62
256
370
-1
6
ByLayer
10
-146.270740324
20
-68.1998360062
30
0.0
11
-143.867960068
21
-69.4658370459
31
0.0
0
LINE
5
272
100
AcDbEntity
100
AcDbLine
8
3
62
256
370
-1
6
ByLayer
10
-143.867960068
20
-69.4658370459
30
0.0
11
-141.421356237
21
-70.7106781187
31
0.0
0
LINE
5
273
100
AcDbEntity
100
AcDbLine
8
3
62
256
370
-1
6
ByLayer
10
-141.421356237
20
-70.7106781187
30
0.0
11
-138.931674092
21
-71.9339800339
31
0.0
0
LINE
5
274
100
AcDbEntity
100
AcDbLine
8
3
62
256
370
-1
6
ByLayer
10
-138.931674092
20
-71.9339800339
30
0.0
11
-136.399672012
21
-73.1353701619
31
0.0
0
LINE
5
275
100
AcDbEntity
100
AcDbLine
8
3
62
256
370
-1
6
ByLayer
10
-136.399672012
20
-73.1353701619
30
0.0
11
-133.826121272
21
-74.3144825477
31
0.0
0
LINE
5
276
100
AcDbEntity
100
AcDbLine
8
3
62
256
370
-1
6
ByLayer
10
-133.826121272
20
-74.3144825477
30
0.0
11
-131.211805798
21
-75.4709580223
31
0.0
0
LINE
5
277
100
AcDbEntity
100
AcDbLine
8
3
62
256
370
-1
6
ByLayer
10
-131.211805798
20
-75.4709580223
30
0.0
11
-128.557521937
21
-76.6044443119
31
0.0
0
LINE
5
278
100
AcDbEntity
100
AcDbLine
8
3
62
256
370
-1
6
ByLayer
10
-128.557521937
20
-76.6044443119
30
0.0
11
-125.86407821
21
-77.7145961457
31
0.0
0
LINE
5
279
100
AcDbEntity
100
AcDbLine
8
3
62
256
370
-1
6
ByLayer
10
-125.86407821
20
-77.7145961457
30
0.0
11
-123.132295065
21
-78.8010753607
31
0.0
0
LINE
5
280
100
AcDbEntity
100
AcDbLine
8
3
62
256
370
-1
6
ByLayer
10
-123.132295065
20
-78.8010753607
30
0.0
11
-120.36300463
21
-79.8635510047
31
0.0
0
LINE
5
281
100
AcDbEntity
100
AcDbLine
8
3
62
256
370
-1
6
ByLayer
10
-120.36300463
20
-79.8635510047
30
0.0
11
-117.557050458
21
-80.9016994375
31
0.0
0
LINE
5
282
100
AcDbEntity
100
AcDbLine
8
3
62
256
370
-1
6
ByLayer
10
-117.557050458
20
-80.9016994375
30
0.0
11
-114.71528727
21
-81.9152044289
31
0.0
0
LINE
5
283
100
AcDbEntity
100
AcDbLine
8
3
62
256
370
-1
6
ByLayer
10
-114.71528727
20
-81.9152044289
30
0.0
11
-111.838580694
21
-82.9037572555
31
0.0
0
LINE
5
284
100
AcDbEntity
100
AcDbLine
8
3
62
256
370
-1
6
ByLayer
10
-111.838580694
20
-82.9037572555
30
0.0
11
-108.927807003
21
-83.8670567945
31
0.0
0
LINE
5
285
100
AcDbEntity
100
AcDbLine
8
3
62
256
370
-1
6
ByLayer
10
-108.927807003
20
-83.8670567945
30
0.0
11
-105.983852847
21
-84.8048096156
31
0.0
0
LINE
5
286
100
AcDbEntity
100
AcDbLine
8
3
62
256
370
-1
6
ByLayer
10
-105.983852847
20
-84.8048096156
30
0.0
11
-103.007614982
21
-85.7167300702
31
0.0
0
LINE
5
287
100
AcDbEntity
100
AcDbLine
8
3
62
256
370
-1
6
ByLayer
10
-103.007614982
20
-85.7167300702
30
0.0
11
-100.0
21
-86.6025403784
31
0.0
0
LINE
5
288
100
AcDbEntity
100
AcDbLine
8
3
62
256
370
-1
6
ByLayer
10
-100.0
20
-86.6025403784
30
0.0
11
-96.9619240493
21
-87.4619707139
31
0.0
0
LINE
5
289
100
AcDbEntity
100
AcDbLine
8
3
62
256
370
-1
6
ByLayer
10
-96.9619240493
20
-87.4619707139
30
0.0
11
-93.8943125572
21
-88.2947592859
31
0.0
0
LINE
5
290
100
AcDbEntity
100
AcDbLine
8
3
62
256
370
-1
6
ByLayer
10
-93.8943125572
20
-88.2947592859
30
0.0
11
-90.7980999479
21
-89.1006524188
31
0.0
0
LINE
5
291
100
AcDbEntity
100
AcDbLine
8
3
62
256
370
-1
6
ByLayer
10
-90.7980999479
20
-89.1006524188
30
0.0
11
-87.6742293578
21
-89.8794046299
31
0.0
0
LINE
5
292
100
AcDbEntity
100
AcDbLine
8
3
62
256
370
-1
6
ByLayer
10
-87.6742293578
20
-89.8794046299
30
0.0
11
-84.5236523481
21
-90.6307787037
31
0.0
0
LINE
5
293
100
AcDbEntity
100
AcDbLine
8
3
62
256
370
-1
6
ByLayer
10
-84.5236523481
20
-90.6307787037
30
0.0
11
-81.3473286152
21
-91.3545457643
31
0.0
0
LINE
5
294
100
AcDbEntity
100
AcDbLine
8
3
62
256
370
-1
6
ByLayer
10
-81.3473286152
20
-91.3545457643
30
0.0
11
-78.1462256979
21
-92.0504853452
31
0.0
0
LINE
5
295
100
AcDbEntity
100
AcDbLine
8
3
62
256
370
-1
6
ByLayer
10
-78.1462256979
20
-92.0504853452
30
0.0
11
-74.9213186832
21
-92.7183854567
31
0.0
0
LINE
5
296
100
AcDbEntity
100
AcDbLine
8
3
62
256
370
-1
6
ByLayer
10
-74.9213186832
20
-92.7183854567
30
0.0
11
-71.6735899091
21
-93.3580426497
31
0.0
0
LINE
5
297
100
AcDbEntity
100
AcDbLine
8
3
62
256
370
-1
6
ByLayer
10
-71.6735899091
20
-93.3580426497
30
0.0
11
-68.4040286651
21
-93.9692620786
31
0.0
0
LINE
5
298
100
AcDbEntity
100
AcDbLine
8
3
62
256
370
-1
6
ByLayer
10
-68.4040286651
20
-93.9692620786
30
0.0
11
-65.1136308914
21
-94.5518575599
31
0.0
0
LINE
5
299
100
AcDbEntity
100
AcDbLine
8
3
62
256
370
-1
6
ByLayer
10
-65.1136308914
20
-94.5518575599
30
0.0
11
-61.803398875
21
-95.1056516295
31
0.0
0
LINE
5
300
100
AcDbEntity
100
AcDbLine
8
3
62
256
370
-1
6
ByLayer
10
-61.803398875
20
-95.1056516295
30
0.0
11
-58.4743409445
21
-95.6304755963
31
0.0
0
LINE
5
301
100
AcDbEntity
100
AcDbLine
8
3
62
256
370
-1
6
ByLayer
10
-58.4743409445
20
-95.6304755963
30
0.0
11
-55.1274711634
21
-96.1261695938
31
0.0
0
LINE
5
302
100
AcDbEntity
100
AcDbLine
8
3
62
256
370
-1
6
ByLayer
10
-55.1274711634
20
-96.1261695938
30
0.0
11
-51.7638090205
21
-96.5925826289
31
0.0
0
LINE
5
303
100
AcDbEntity
100
AcDbLine
8
3
62
256
370
-1
6
ByLayer
10
-51.7638090205
20
-96.5925826289
30
0.0
11
-48.3843791199
21
-97.0295726276
31
0.0
0
LINE
5
304
100
AcDbEntity
100
AcDbLine
8
3
62
256
370
-1
6
ByLayer
10
-48.3843791199
20
-97.0295726276
30
0.0
11
-44.9902108688
21
-97.4370064785
31
0.0
0
LINE
5
305
100
AcDbEntity
100
AcDbLine
8
3
62
256
370
-1
6
ByLayer
10
-44.9902108688
20
-97.4370064785
30
0.0
11
-41.5823381636
21
-97.8147600734
31
0.0
0
LINE
5
306
100
AcDbEntity
100
AcDbLine
8
3
62
256
370
-1
6
ByLayer
10
-41.5823381636
20
-97.8147600734
30
0.0
11
-38.1617990753
21
-98.1627183448
31
0.0
0
LINE
5
307
100
AcDbEntity
100
AcDbLine
8
3
62
256
370
-1
6
ByLayer
10
-38.1617990753
20
-98.1627183448
30
0.0
11
-34.7296355334
21
-98.4807753012
31
0.0
0
LINE
5
308
100
AcDbEntity
100
AcDbLine
8
3
62
256
370
-1
6
ByLayer
10
-34.7296355334
20
-98.4807753012
30
0.0
11
-31.286893008
21
-98.7688340595
31
0.0
0
LINE
5
309
100
AcDbEntity
100
AcDbLine
8
3
62
256
370
-1
6
ByLayer
10
-31.286893008
20
-98.7688340595
30
0.0
11
-27.834620192
21
-99.0268068742
31
0.0
0
LINE
5
310
100
AcDbEntity
100
AcDbLine
8
3
62
256
370
-1
6
ByLayer
10
-27.834620192
20
-99.0268068742
30
0.0
11
-24.373868681
21
-99.2546151641
31
0.0
0
LINE
5
311
100
AcDbEntity
100
AcDbLine
8
3
62
256
370
-1
6
ByLayer
10
-24.373868681
20
-99.2546151641
30
0.0
11
-20.9056926535
21
-99.4521895368
31
0.0
0
LINE
5
312
100
AcDbEntity
100
AcDbLine
8
3
62
256
370
-1
6
ByLayer
10
-20.9056926535
20
-99.4521895368
30
0.0
11
-17.4311485495
21
-99.6194698092
31
0.0
0
LINE
5
313
100
AcDbEntity
100
AcDbLine
8
3
62
256
370
-1
6
ByLayer
10
-17.4311485495
20
-99.6194698092
30
0.0
11
-13.9512947488
21
-99.756405026
31
0.0
0
LINE
5
314
100
AcDbEntity
100
AcDbLine
8
3
62
256
370
-1
6
ByLayer
10
-13.9512947488
20
-99.756405026
30
0.0
11
-10.4671912486
21
-99.8629534755
31
0.0
0
LINE
5
315
100
AcDbEntity
100
AcDbLine
8
3
62
256
370
-1
6
ByLayer
10
-10.4671912486
20
-99.8629534755
30
0.0
11
-6.9798993405
21
-99.9390827019
31
0.0
0
LINE
5
316
100
AcDbEntity
100
AcDbLine
8
3
62
256
370
-1
6
ByLayer
10
-6.9798993405
20
-99.9390827019
30
0.0
11
-3.49048128746
21
-99.9847695156
31
0.0
0
LINE
5
317
100
AcDbEntity
100
AcDbLine
8
3
62
256
370
-1
6
ByLayer
10
-3.49048128746
20
-99.9847695156
30
0.0
11
-3.67381906147e-14
21
-100.0
31
0.0
0
LINE
5
318
100
AcDbEntity
100
AcDbLine
8
3
62
256
370
-1
6
ByLayer
10
-3.67381906147e-14
20
-100.0
30
0.0
11
3.49048128746
21
-99.9847695156
31
0.0
0
LINE
5
319
100
AcDbEntity
100
AcDbLine
8
3
62
256
370
-1
6
ByLayer
10
3.49048128746
20
-99.9847695156
30
0.0
11
6.9798993405
21
-99.9390827019
31
0.0
0
LINE
5
320
100
AcDbEntity
100
AcDbLine
8
3
62
256
370
-1
6
ByLayer
10
6.9798993405
20
-99.9390827019
30
0.0
11
10.4671912486
21
-99.8629534755
31
0.0
0
LINE
5
321
100
AcDbEntity
100
AcDbLine
8
3
62
256
370
-1
6
ByLayer
10
10.4671912486
20
-99.8629534755
30
0.0
11
13.9512947488
21
-99.756405026
31
0.0
0
LINE
5
322
100
AcDbEntity
100
AcDbLine
8
3
62
256
370
-1
6
ByLayer
10
13.9512947488
20
-99.756405026
30
0.0
11
17.4311485495
21
-99.6194698092
31
0.0
0
LINE
5
323
100
AcDbEntity
100
AcDbLine
8
3
62
256
370
-1
6
ByLayer
10
17.4311485495
20
-99.6194698092
30
0.0
11
20.9056926535
21
-99.4521895368
31
0.0
0
LINE
5
324
100
AcDbEntity
100
AcDbLine
8
3
62
256
370
-1
6
ByLayer
10
20.9056926535
20
-99.4521895368
30
0.0
11
24.373868681
21
-99.2546151641
31
0.0
0
LINE
5
325
100
AcDbEntity
100
AcDbLine
8
3
62
256
370
-1
6
ByLayer
10
24.373868681
20
-99.2546151641
30
0.0
11
27.834620192
21
-99.0268068742
31
0.0
0
LINE
5
326
100
AcDbEntity
100
AcDbLine
8
3
62
256
370
-1
6
ByLayer
10
27.834620192
20
-99.0268068742
30
0.0
11
31.286893008
21
-98.7688340595
31
0.0
0
LINE
5
327
100
AcDbEntity
100
AcDbLine
8
3
62
256
370
-1
6
ByLayer
10
31.286893008
20
-98.7688340595
30
0.0
11
34.7296355334
21
-98.4807753012
31
0.0
0
LINE
5
328
100
AcDbEntity
100
AcDbLine
8
3
62
256
370
-1
6
ByLayer
10
34.7296355334
20
-98.4807753012
30
0.0
11
38.1617990753
21
-98.1627183448
31
0.0
0
LINE
5
329
100
AcDbEntity
100
AcDbLine
8
3
62
256
370
-1
6
ByLayer
10
38.1617990753
20
-98.1627183448
30
0.0
11
41.5823381636
21
-97.8147600734
31
0.0
0
LINE
5
330
100
AcDbEntity
100
AcDbLine
8
3
62
256
370
-1
6
ByLayer
10
41.5823381636
20
-97.8147600734
30
0.0
11
44.9902108688
21
-97.4370064785
31
0.0
0
LINE
5
331
100
AcDbEntity
100
AcDbLine
8
3
62
256
370
-1
6
ByLayer
10
44.9902108688
20
-97.4370064785
30
0.0
11
48.3843791199
21
-97.0295726276
31
0.0
0
LINE
5
332
100
AcDbEntity
100
AcDbLine
8
3
62
256
370
-1
6
ByLayer
10
48.3843791199
20
-97.0295726276
30
0.0
11
51.7638090205
21
-96.5925826289
31
0.0
0
LINE
5
333
100
AcDbEntity
100
AcDbLine
8
3
62
256
370
-1
6
ByLayer
10
51.7638090205
20
-96.5925826289
30
0.0
11
55.1274711634
21
-96.1261695938
31
0.0
0
LINE
5
334
100
AcDbEntity
100
AcDbLine
8
3
62
256
370
-1
6
ByLayer
10
55.1274711634
20
-96.1261695938
30
0.0
11
58.4743409445
21
-95.6304755963
31
0.0
0
LINE
5
335
100
AcDbEntity
100
AcDbLine
8
3
62
256
370
-1
6
ByLayer
10
58.4743409445
20
-95.6304755963
30
0.0
11
61.803398875
21
-95.1056516295
31
0.0
0
LINE
5
336
100
AcDbEntity
100
AcDbLine
8
3
62
256
370
-1
6
ByLayer
10
61.803398875
20
-95.1056516295
30
0.0
11
65.1136308914
21
-94.5518575599
31
0.0
0
LINE
5
337
100
AcDbEntity
100
AcDbLine
8
3
62
256
370
-1
6
ByLayer
10
65.1136308914
20
-94.5518575599
30
0.0
11
68.4040286651
21
-93.9692620786
31
0.0
0
LINE
5
338
100
AcDbEntity
100
AcDbLine
8
3
62
256
370
-1
6
ByLayer
10
68.4040286651
20
-93.9692620786
30
0.0
11
71.6735899091
21
-93.3580426497
31
0.0
0
LINE
5
339
100
AcDbEntity
100
AcDbLine
8
3
62
256
370
-1
6
ByLayer
10
71.6735899091
20
-93.3580426497
30
0.0
11
74.9213186832
21
-92.7183854567
31
0.0
0
LINE
5
340
100
AcDbEntity
100
AcDbLine
8
3
62
256
370
-1
6
ByLayer
10
74.9213186832
20
-92.7183854567
30
0.0
11
78.1462256979
21
-92.0504853452
31
0.0
0
LINE
5
341
100
AcDbEntity
100
AcDbLine
8
3
62
256
370
-1
6
ByLayer
10
78.1462256979
20
-92.0504853452
30
0.0
11
81.3473286152
21
-91.3545457643
31
0.0
0
LINE
5
342
100
AcDbEntity
100
AcDbLine
8
3
62
256
370
-1
6
ByLayer
10
81.3473286152
20
-91.3545457643
30
0.0
11
84.5236523481
21
-90.6307787037
31
0.0
0
LINE
5
343
100
AcDbEntity
100
AcDbLine
8
3
62
256
370
-1
6
ByLayer
10
84.5236523481
20
-90.6307787037
30
0.0
11
87.6742293578
21
-89.8794046299
31
0.0
0
LINE
5
344
100
AcDbEntity
100
AcDbLine
8
3
62
256
370
-1
6
ByLayer
10
87.6742293578
20
-89.8794046299
30
0.0
11
90.7980999479
21
-89.1006524188
31
0.0
0
LINE
5
345
100
AcDbEntity
100
AcDbLine
8
3
62
256
370
-1
6
ByLayer
10
90.7980999479
20
-89.1006524188
30
0.0
11
93.8943125572
21
-88.2947592859
31
0.0
0
LINE
5
346
100
AcDbEntity
100
AcDbLine
8
3
62
256
370
-1
6
ByLayer
10
93.8943125572
20
-88.2947592859
30
0.0
11
96.9619240493
21
-87.4619707139
31
0.0
0
LINE
5
347
100
AcDbEntity
100
AcDbLine
8
3
62
256
370
-1
6
ByLayer
10
96.9619240493
20
-87.4619707139
30
0.0
11
100.0
21
-86.6025403784
31
0.0
0
LINE
5
348
100
AcDbEntity
100
AcDbLine
8
3
62
256
370
-1
6
ByLayer
10
100.0
20
-86.6025403784
30
0.0
11
103.007614982
21
-85.7167300702
31
0.0
0
LINE
5
349
100
AcDbEntity
100
AcDbLine
8
3
62
256
370
-1
6
ByLayer
10
103.007614982
20
-85.7167300702
30
0.0
11
105.983852847
21
-84.8048096156
31
0.0
0
LINE
5
350
100
AcDbEntity
100
AcDbLine
8
3
62
256
370
-1
6
ByLayer
10
105.983852847
20
-84.8048096156
30
0.0
11
108.927807003
21
-83.8670567945
31
0.0
0
LINE
5
351
100
AcDbEntity
100
AcDbLine
8
3
62
256
370
-1
6
ByLayer
10
108.927807003
20
-83.8670567945
30
0.0
11
111.838580694
21
-82.9037572555
31
0.0
0
LINE
5
352
100
AcDbEntity
100
AcDbLine
8
3
62
256
370
-1
6
ByLayer
10
111.838580694
20
-82.9037572555
30
0.0
11
114.71528727
21
-81.9152044289
31
0.0
0
LINE
5
353
100
AcDbEntity
100
AcDbLine
8
3
62
256
370
-1
6
ByLayer
10
114.71528727
20
-81.9152044289
30
0.0
11
117.557050458
21
-80.9016994375
31
0.0
0
LINE
5
354
100
AcDbEntity
100
AcDbLine
8
3
62
256
370
-1
6
ByLayer
10
117.557050458
20
-80.9016994375
30
0.0
11
120.36300463
21
-79.8635510047
31
0.0
0
LINE
5
355
100
AcDbEntity
100
AcDbLine
8
3
62
256
370
-1
6
ByLayer
10
120.36300463
20
-79.8635510047
30
0.0
11
123.132295065
21
-78.8010753607
31
0.0
0
LINE
5
356
100
AcDbEntity
100
AcDbLine
8
3
62
256
370
-1
6
ByLayer
10
123.132295065
20
-78.8010753607
30
0.0
11
125.86407821
21
-77.7145961457
31
0.0
0
LINE
5
357
100
AcDbEntity
100
AcDbLine
8
3
62
256
370
-1
6
ByLayer
10
125.86407821
20
-77.7145961457
30
0.0
11
128.557521937
21
-76.6044443119
31
0.0
0
LINE
5
358
100
AcDbEntity
100
AcDbLine
8
3
62
256
370
-1
6
ByLayer
10
128.557521937
20
-76.6044443119
30
0.0
11
131.211805798
21
-75.4709580223
31
0.0
0
LINE
5
359
100
AcDbEntity
100
AcDbLine
8
3
62
256
370
-1
6
ByLayer
10
131.211805798
20
-75.4709580223
30
0.0
11
133.826121272
21
-74.3144825477
31
0.0
0
LINE
5
360
100
AcDbEntity
100
AcDbLine
8
3
62
256
370
-1
6
ByLayer
10
133.826121272
20
-74.3144825477
30
0.0
11
136.399672012
21
-73.1353701619
31
0.0
0
LINE
5
361
100
AcDbEntity
100
AcDbLine
8
3
62
256
370
-1
6
ByLayer
10
136.399672012
20
-73.1353701619
30
0.0
11
138.931674092
21
-71.9339800339
31
0.0
0
LINE
5
362
100
AcDbEntity
100
AcDbLine
8
3
62
256
370
-1
6
ByLayer
10
138.931674092
20
-71.9339800339
30
0.0
11
141.421356237
21
-70.7106781187
31
0.0
0
LINE
5
363
100
AcDbEntity
100
AcDbLine
8
3
62
256
370
-1
6
ByLayer
10
141.421356237
20
-70.7106781187
30
0.0
11
143.867960068
21
-69.4658370459
31
0.0
0
LINE
5
364
100
AcDbEntity
100
AcDbLine
8
3
62
256
370
-1
6
ByLayer
10
143.867960068
20
-69.4658370459
30
0.0
11
146.270740324
21
-68.1998360062
31
0.0
0
LINE
5
365
100
AcDbEntity
100
AcDbLine
8
3
62
256
370
-1
6
ByLayer
10
146.270740324
20
-68.1998360062
30
0.0
11
148.628965095
21
-66.9130606359
31
0.0
0
LINE
5
366
100
AcDbEntity
100
AcDbLine
8
3
62
256
370
-1
6
ByLayer
10
148.628965095
20
-66.9130606359
30
0.0
11
150.941916045
21
-65.6059028991
31
0.0
0
LINE
5
367
100
AcDbEntity
100
AcDbLine
8
3
62
256
370
-1
6
ByLayer
10
150.941916045
20
-65.6059028991
30
0.0
11
153.208888624
21
-64.2787609687
31
0.0
0
LINE
5
368
100
AcDbEntity
100
AcDbLine
8
3
62
256
370
-1
6
ByLayer
10
153.208888624
20
-64.2787609687
30
0.0
11
155.429192291
21
-62.932039105
31
0.0
0
LINE
5
369
100
AcDbEntity
100
AcDbLine
8
3
62
256
370
-1
6
ByLayer
10
155.429192291
20
-62.932039105
30
0.0
11
157.602150721
21
-61.5661475326
31
0.0
0
LINE
5
370
100
AcDbEntity
100
AcDbLine
8
3
62
256
370
-1
6
ByLayer
10
157.602150721
20
-61.5661475326
30
0.0
11
159.727102009
21
-60.1815023152
31
0.0
0
LINE
5
371
100
AcDbEntity
100
AcDbLine
8
3
62
256
370
-1
6
ByLayer
10
159.727102009
20
-60.1815023152
30
0.0
11
161.803398875
21
-58.7785252292
31
0.0
0
LINE
5
372
100
AcDbEntity
100
AcDbLine
8
3
62
256
370
-1
6
ByLayer
10
161.803398875
20
-58.7785252292
30
0.0
11
163.830408858
21
-57.3576436351
31
0.0
0
LINE
5
373
100
AcDbEntity
100
AcDbLine
8
3
62
256
370
-1
6
ByLayer
10
163.830408858
20
-57.3576436351
30
0.0
11
165.807514511
21
-55.9192903471
31
0.0
0
LINE
5
374
100
AcDbEntity
100
AcDbLine
8
3
62
256
370
-1
6
ByLayer
10
165.807514511
20
-55.9192903471
30
0.0
11
167.734113589
21
-54.4639035015
31
0.0
0
LINE
5
375
100
AcDbEntity
100
AcDbLine
8
3
62
256
370
-1
6
ByLayer
10
167.734113589
20
-54.4639035015
30
0.0
11
169.609619231
21
-52.9919264233
31
0.0
0
LINE
5
376
100
AcDbEntity
100
AcDbLine
8
3
62
256
370
-1
6
ByLayer
10
169.609619231
20
-52.9919264233
30
0.0
11
171.43346014
21
-51.503807491
31
0.0
0
LINE
5
377
100
AcDbEntity
100
AcDbLine
8
3
62
256
370
-1
6
ByLayer
10
171.43346014
20
-51.503807491
30
0.0
11
173.205080757
21
-50.0
31
0.0
0
LINE
5
378
100
AcDbEntity
100
AcDbLine
8
3
62
256
370
-1
6
ByLayer
10
173.205080757
20
-50.0
30
0.0
11
174.923941428
21
-48.4809620246
31
0.0
0
LINE
5
379
100
AcDbEntity
100
AcDbLine
8
3
62
256
370
-1
6
ByLayer
10
174.923941428
20
-48.4809620246
30
0.0
11
176.589518572
21
-46.9471562786
31
0.0
0
LINE
5
380
100
AcDbEntity
100
AcDbLine
8
3
62
256
370
-1
6
ByLayer
10
176.589518572
20
-46.9471562786
30
0.0
11
178.201304838
21
-45.399049974
31
0.0
0
LINE
5
381
100
AcDbEntity
100
AcDbLine
8
3
62
256
370
-1
6
ByLayer
10
178.201304838
20
-45.399049974
30
0.0
11
179.75880926
21
-43.8371146789
31
0.0
0
LINE
5
382
100
AcDbEntity
100
AcDbLine
8
3
62
256
370
-1
6
ByLayer
10
179.75880926
20
-43.8371146789
30
0.0
11
181.261557407
21
-42.2618261741
31
0.0
0
LINE
5
383
100
AcDbEntity
100
AcDbLine
8
3
62
256
370
-1
6
ByLayer
10
181.261557407
20
-42.2618261741
30
0.0
11
182.709091529
21
-40.6736643076
31
0.0
0
LINE
5
384
100
AcDbEntity
100
AcDbLine
8
3
62
256
370
-1
6
ByLayer
10
182.709091529
20
-40.6736643076
30
0.0
11
184.10097069
21
-39.0731128489
31
0.0
0
LINE
5
385
100
AcDbEntity
100
AcDbLine
8
3
62
256
370
-1
6
ByLayer
10
184.10097069
20
-39.0731128489
30
0.0
11
185.436770913
21
-37.4606593416
31
0.0
0
LINE
5
386
100
AcDbEntity
100
AcDbLine
8
3
62
256
370
-1
6
ByLayer
10
185.436770913
20
-37.4606593416
30
0.0
11
186.716085299
21
-35.8367949545
31
0.0
0
LINE
5
387
100
AcDbEntity
100
AcDbLine
8
3
62
256
370
-1
6
ByLayer
10
186.716085299
20
-35.8367949545
30
0.0
11
187.938524157
21
-34.2020143326
31
0.0
0
LINE
5
388
100
AcDbEntity
100
AcDbLine
8
3
62
256
370
-1
6
ByLayer
10
187.938524157
20
-34.2020143326
30
0.0
11
189.10371512
21
-32.5568154457
31
0.0
0
LINE
5
389
100
AcDbEntity
100
AcDbLine
8
3
62
256
370
-1
6
ByLayer
10
189.10371512
20
-32.5568154457
30
0.0
11
190.211303259
21
-30.9016994375
31
0.0
0
LINE
5
390
100
AcDbEntity
100
AcDbLine
8
3
62
256
370
-1
6
ByLayer
10
190.211303259
20
-30.9016994375
30
0.0
11
191.260951193
21
-29.2371704723
31
0.0
0
LINE
5
391
100
AcDbEntity
100
AcDbLine
8
3
62
256
370
-1
6
ByLayer
10
191.260951193
20
-29.2371704723
30
0.0
11
192.252339188
21
-27.5637355817
31
0.0
0
LINE
5
392
100
AcDbEntity
100
AcDbLine
8
3
62
256
370
-1
6
ByLayer
10
192.252339188
20
-27.5637355817
30
0.0
11
193.185165258
21
-25.8819045103
31
0.0
0
LINE
5
393
100
AcDbEntity
100
AcDbLine
8
3
62
256
370
-1
6
ByLayer
10
193.185165258
20
-25.8819045103
30
0.0
11
194.059145255
21
-24.19218956
31
0.0
0
LINE
5
394
100
AcDbEntity
100
AcDbLine
8
3
62
256
370
-1
6
ByLayer
10
194.059145255
20
-24.19218956
30
0.0
11
194.874012957
21
-22.4951054344
31
0.0
0
LINE
5
395
100
AcDbEntity
100
AcDbLine
8
3
62
256
370
-1
6
ByLayer
10
194.874012957
20
-22.4951054344
30
0.0
11
195.629520147
21
-20.7911690818
31
0.0
0
LINE
5
396
100
AcDbEntity
100
AcDbLine
8
3
62
256
370
-1
6
ByLayer
10
195.629520147
20
-20.7911690818
30
0.0
11
196.32543669
21
-19.0808995377
31
0.0
0
LINE
5
397
100
AcDbEntity
100
AcDbLine
8
3
62
256
370
-1
6
ByLayer
10
196.32543669
20
-19.0808995377
30
0.0
11
196.961550602
21
-17.3648177667
31
0.0
0
LINE
5
398
100
AcDbEntity
100
AcDbLine
8
3
62
256
370
-1
6
ByLayer
10
196.961550602
20
-17.3648177667
30
0.0
11
197.537668119
21
-15.643446504
31
0.0
0
LINE
5
399
100
AcDbEntity
100
AcDbLine
8
3
62
256
370
-1
6
ByLayer
10
197.537668119
20
-15.643446504
30
0.0
11
198.053613748
21
-13.917310096
31
0.0
0
LINE
5
400
100
AcDbEntity
100
AcDbLine
8
3
62
256
370
-1
6
ByLayer
10
198.053613748
20
-13.917310096
30
0.0
11
198.509230328
21
-12.1869343405
31
0.0
0
LINE
5
401
100
AcDbEntity
100
AcDbLine
8
3
62
256
370
-1
6
ByLayer
10
198.509230328
20
-12.1869343405
30
0.0
11
198.904379074
21
-10.4528463268
31
0.0
0
LINE
5
402
100
AcDbEntity
100
AcDbLine
8
3
62
256
370
-1
6
ByLayer
10
198.904379074
20
-10.4528463268
30
0.0
11
199.238939618
21
-8.71557427477
31
0.0
0
LINE
5
403
100
AcDbEntity
100
AcDbLine
8
3
62
256
370
-1
6
ByLayer
10
199.238939618
20
-8.71557427477
30
0.0
11
199.512810052
21
-6.97564737441
31
0.0
0
LINE
5
404
100
AcDbEntity
100
AcDbLine
8
3
62
256
370
-1
6
ByLayer
10
199.512810052
20
-6.97564737441
30
0.0
11
199.725906951
21
-5.23359562429
31
0.0
0
LINE
5
405
100
AcDbEntity
100
AcDbLine
8
3
62
256
370
-1
6
ByLayer
10
199.725906951
20
-5.23359562429
30
0.0
11
199.878165404
21
-3.48994967025
31
0.0
0
LINE
5
406
100
AcDbEntity
100
AcDbLine
8
3
62
256
370
-1
6
ByLayer
10
199.878165404
20
-3.48994967025
30
0.0
11
199.969539031
21
-1.74524064373
31
0.0
0
LINE
5
407
100
AcDbEntity
100
AcDbLine
8
3
62
256
370
-1
6
ByLayer
10
199.969539031
20
-1.74524064373
30
0.0
11
200.0
21
-2.44921270764e-14
31
0.0
0
MTEXT
5
408
100
AcDbEntity
100
AcDbMText
8
3
62
256
370
-1
6
ByLayer
10
0.0
20
-115.0
30
0.0
40
10
41
100.0
71
8
72
0
1
Eclipse
7
normallatin1
50
0.0
73
1
44
1.0
0
ENDSEC
  0
SECTION
  2
OBJECTS
  0
DICTIONARY
  5
C
100
AcDbDictionary
280
0
281
1
  3
ACAD_GROUP
350
D
  3
ACAD_LAYOUT
350
1A
  3
ACAD_MLINESTYLE
350
17
  3
ACAD_PLOTSETTINGS
350
19
  3
ACAD_PLOTSTYLENAME
350
E
  3
AcDbVariableDictionary
350
48
  0
DICTIONARY
  5
D
100
AcDbDictionary
280
0
281
1
  0
ACDBDICTIONARYWDFLT
  5
E
100
AcDbDictionary
281
1
  3
Normal
350
F
100
AcDbDictionaryWithDefault
340
F
  0
ACDBPLACEHOLDER
  5
F
  0
DICTIONARY
  5
17
100
AcDbDictionary
280
0
281
1
  3
Standard
350
18
  0
MLINESTYLE
  5
18
100
AcDbMlineStyle
  2
STANDARD
 70
0
  3

 62
256
 51
90.0
 52
90.0
 71
2
 49
0.5
 62
256
  6
BYLAYER
 49
-0.5
 62
256
  6
BYLAYER
  0
DICTIONARY
  5
19
100
AcDbDictionary
280
0
281
1
  0
DICTIONARY
  5
1A
100
AcDbDictionary
281
1
  3
Layout1
350
1E
  3
Layout2
350
26
  3
Model
350
22
  0
LAYOUT
  5
1E
100
AcDbPlotSettings
  1

  2
C:\Program Files\AutoCAD 2002\plotters\DWF ePlot (optimized for plotting).pc3
  4

  6

 40
0.0
 41
0.0
 42
0.0
 43
0.0
 44
0.0
 45
0.0
 46
0.0
 47
0.0
 48
0.0
 49
0.0
140
0.0
141
0.0
142
1.0
143
1.0
 70
688
 72
0
 73
0
 74
5
  7

 75
16
147
1.0
148
0.0
149
0.0
100
AcDbLayout
  1
Layout1
 70
1
 71
1
 10
0.0
 20
0.0
 11
420.0
 21
297.0
 12
0.0
 22
0.0
 32
0.0
 14
100000000000000000000.0
 24
100000000000000000000.0
 34
100000000000000000000.0
 15
-100000000000000000000.0
 25
-100000000000000000000.0
 35
-100000000000000000000.0
146
0.0
 13
0.0
 23
0.0
 33
0.0
 16
1.0
 26
0.0
 36
0.0
 17
0.0
 27
1.0
 37
0.0
 76
0
330
1B
  0
LAYOUT
  5
22
100
AcDbPlotSettings
  1

  2
C:\Program Files\AutoCAD 2002\plotters\DWF ePlot (optimized for plotting).pc3
  4

  6

 40
0.0
 41
0.0
 42
0.0
 43
0.0
 44
0.0
 45
0.0
 46
0.0
 47
0.0
 48
0.0
 49
0.0
140
0.0
141
0.0
142
1.0
143
1.0
 70
1712
 72
0
 73
0
 74
0
  7

 75
0
147
1.0
148
0.0
149
0.0
100
AcDbLayout
  1
Model
 70
1
 71
0
 10
0.0
 20
0.0
 11
12.0
 21
9.0
 12
0.0
 22
0.0
 32
0.0
 14
0.0
 24
0.0
 34
0.0
 15
0.0
 25
0.0
 35
0.0
146
0.0
 13
0.0
 23
0.0
 33
0.0
 16
1.0
 26
0.0
 36
0.0
 17
0.0
 27
1.0
 37
0.0
 76
0
330
1F
  0
LAYOUT
  5
26
100
AcDbPlotSettings
  1

  2
C:\Program Files\AutoCAD 2002\plotters\DWF ePlot (optimized for plotting).pc3
  4

  6

 40
0.0
 41
0.0
 42
0.0
 43
0.0
 44
0.0
 45
0.0
 46
0.0
 47
0.0
 48
0.0
 49
0.0
140
0.0
141
0.0
142
1.0
143
1.0
 70
688
 72
0
 73
0
 74
5
  7

 75
16
147
1.0
148
0.0
149
0.0
100
AcDbLayout
  1
Layout2
 70
1
 71
2
 10
0.0
 20
0.0
 11
12.0
 21
9.0
 12
0.0
 22
0.0
 32
0.0
 14
0.0
 24
0.0
 34
0.0
 15
0.0
 25
0.0
 35
0.0
146
0.0
 13
0.0
 23
0.0
 33
0.0
 16
1.0
 26
0.0
 36
0.0
 17
0.0
 27
1.0
 37
0.0
 76
0
330
23
  0
DICTIONARY
  5
48
100
AcDbDictionary
281
1
  3
DIMASSOC
350
4A
  3
HIDETEXT
350
49
  0
DICTIONARYVAR
  5
49
100
DictionaryVariables
280
0
  1
2
  0
DICTIONARYVAR
  5
4A
100
DictionaryVariables
280
0
  1
1
  0
ENDSEC
  0
EOF
