999
dxflib 2.0.4.8
  0
SECTION
  2
HEADER
  9
$ACADVER
  1
AC1015
  9
$HANDSEED
  5
FFFF
  9
$DIMASZ
 40
2.5
  9
$DIMGAP
 40
0.625
  9
$DIMEXO
 40
0.625
  9
$INSUNITS
 70
4
  9
$DIMTXT
 40
2.5
  9
$PLIMMAX
 10
210.0
 20
297.0
  9
$PLIMMIN
 10
0.0
 20
0.0
  9
$DIMEXE
 40
1.25
  0
ENDSEC
  0
SECTION
  2
TABLES
  0
TABLE
  2
VPORT
  5
8
100
AcDbSymbolTable
 70
1
  0
VPORT
  5
30
100
AcDbSymbolTableRecord
100
AcDbViewportTableRecord
  2
*Active
 70
0
 10
0.0
 20
0.0
 11
1.0
 21
1.0
 12
286.3055555555554861
 22
148.5
 13
0.0
 23
0.0
 14
10.0
 24
10.0
 15
10.0
 25
10.0
 16
0.0
 26
0.0
 36
1.0
 17
0.0
 27
0.0
 37
0.0
 40
297.0
 41
1.92798353909465
 42
50.0
 43
0.0
 44
0.0
 50
0.0
 51
0.0
 71
0
 72
100
 73
1
 74
3
 75
1
 76
1
 77
0
 78
0
281
0
 65
1
110
0.0
120
0.0
130
0.0
111
1.0
121
0.0
131
0.0
112
0.0
122
1.0
132
0.0
 79
0
146
0.0
  0
ENDTAB
  0
TABLE
  2
LTYPE
  5
5
100
AcDbSymbolTable
 70
21
  0
LTYPE
  5
14
100
AcDbSymbolTableRecord
100
AcDbLinetypeTableRecord
  2
ByBlock
 70
0
  3

 72
65
 73
0
 40
0.0
  0
LTYPE
  5
15
100
AcDbSymbolTableRecord
100
AcDbLinetypeTableRecord
  2
ByLayer
 70
0
  3

 72
65
 73
0
 40
0.0
  0
LTYPE
  5
16
100
AcDbSymbolTableRecord
100
AcDbLinetypeTableRecord
  2
CONTINUOUS
 70
0
  3
Solid line
 72
65
 73
0
 40
0.0
  0
LTYPE
  5
31
100
AcDbSymbolTableRecord
100
AcDbLinetypeTableRecord
  2
DOT
 70
0
  3
Dot . . . . . . . . . . . . . . . . . . . . . .
 72
65
 73
2
 40
6.3499999999999996
 49
0.0
 74
0
 49
-6.3499999999999996
 74
0
  0
LTYPE
  5
32
100
AcDbSymbolTableRecord
100
AcDbLinetypeTableRecord
  2
DOT2
 70
0
  3
Dot (.5x) .....................................
 72
65
 73
2
 40
3.1749999999999998
 49
0.0
 74
0
 49
-3.1749999999999998
 74
0
  0
LTYPE
  5
33
100
AcDbSymbolTableRecord
100
AcDbLinetypeTableRecord
  2
DOTX2
 70
0
  3
Dot (2x) .  .  .  .  .  .  .  .  .  .  .  .  .
 72
65
 73
2
 40
12.6999999999999993
 49
0.0
 74
0
 49
-12.6999999999999993
 74
0
  0
LTYPE
  5
34
100
AcDbSymbolTableRecord
100
AcDbLinetypeTableRecord
  2
DASHED
 70
0
  3
Dashed __ __ __ __ __ __ __ __ __ __ __ __ __ _
 72
65
 73
2
 40
19.0500000000000007
 49
12.6999999999999993
 74
0
 49
-6.3499999999999996
 74
0
  0
LTYPE
  5
35
100
AcDbSymbolTableRecord
100
AcDbLinetypeTableRecord
  2
DASHED2
 70
0
  3
Dashed (.5x) _ _ _ _ _ _ _ _ _ _ _ _ _ _ _ _ _
 72
65
 73
2
 40
9.5250000000000004
 49
6.3499999999999996
 74
0
 49
-3.1749999999999998
 74
0
  0
LTYPE
  5
36
100
AcDbSymbolTableRecord
100
AcDbLinetypeTableRecord
  2
DASHEDX2
 70
0
  3
Dashed (2x) ____  ____  ____  ____  ____  ___
 72
65
 73
2
 40
38.1000000000000014
 49
25.3999999999999986
 74
0
 49
-12.6999999999999993
 74
0
  0
LTYPE
  5
37
100
AcDbSymbolTableRecord
100
AcDbLinetypeTableRecord
  2
DASHDOT
 70
0
  3
Dash dot __ . __ . __ . __ . __ . __ . __ . __
 72
65
 73
4
 40
25.3999999999999986
 49
12.6999999999999993
 74
0
 49
-6.3499999999999996
 74
0
 49
0.0
 74
0
 49
-6.3499999999999996
 74
0
  0
LTYPE
  5
38
100
AcDbSymbolTableRecord
100
AcDbLinetypeTableRecord
  2
DASHDOT2
 70
0
  3
Dash dot (.5x) _._._._._._._._._._._._._._._.
 72
65
 73
4
 40
12.6999999999999993
 49
6.3499999999999996
 74
0
 49
-3.1749999999999998
 74
0
 49
0.0
 74
0
 49
-3.1749999999999998
 74
0
  0
LTYPE
  5
39
100
AcDbSymbolTableRecord
100
AcDbLinetypeTableRecord
  2
DASHDOTX2
 70
0
  3
Dash dot (2x) ____  .  ____  .  ____  .  ___
 72
65
 73
4
 40
50.7999999999999972
 49
25.3999999999999986
 74
0
 49
-12.6999999999999993
 74
0
 49
0.0
 74
0
 49
-12.6999999999999993
 74
0
  0
LTYPE
  5
3A
100
AcDbSymbolTableRecord
100
AcDbLinetypeTableRecord
  2
DIVIDE
 70
0
  3
Divide ____ . . ____ . . ____ . . ____ . . ____
 72
65
 73
6
 40
31.75
 49
12.6999999999999993
 74
0
 49
-6.3499999999999996
 74
0
 49
0.0
 74
0
 49
-6.3499999999999996
 74
0
 49
0.0
 74
0
 49
-6.3499999999999996
 74
0
  0
LTYPE
  5
3B
100
AcDbSymbolTableRecord
100
AcDbLinetypeTableRecord
  2
DIVIDE2
 70
0
  3
Divide (.5x) __..__..__..__..__..__..__..__.._
 72
65
 73
6
 40
15.875
 49
6.3499999999999996
 74
0
 49
-3.1749999999999998
 74
0
 49
0.0
 74
0
 49
-3.1749999999999998
 74
0
 49
0.0
 74
0
 49
-3.1749999999999998
 74
0
  0
LTYPE
  5
3C
100
AcDbSymbolTableRecord
100
AcDbLinetypeTableRecord
  2
DIVIDEX2
 70
0
  3
Divide (2x) ________  .  .  ________  .  .  _
 72
65
 73
6
 40
63.5
 49
25.3999999999999986
 74
0
 49
-12.6999999999999993
 74
0
 49
0.0
 74
0
 49
-12.6999999999999993
 74
0
 49
0.0
 74
0
 49
-12.6999999999999993
 74
0
  0
LTYPE
  5
3D
100
AcDbSymbolTableRecord
100
AcDbLinetypeTableRecord
  2
CENTER
 70
0
  3
Center ____ _ ____ _ ____ _ ____ _ ____ _ ____
 72
65
 73
4
 40
50.7999999999999972
 49
31.75
 74
0
 49
-6.3499999999999996
 74
0
 49
6.3499999999999996
 74
0
 49
-6.3499999999999996
 74
0
  0
LTYPE
  5
3E
100
AcDbSymbolTableRecord
100
AcDbLinetypeTableRecord
  2
CENTER2
 70
0
  3
Center (.5x) ___ _ ___ _ ___ _ ___ _ ___ _ ___
 72
65
 73
4
 40
28.5749999999999993
 49
19.0500000000000007
 74
0
 49
-3.1749999999999998
 74
0
 49
3.1749999999999998
 74
0
 49
-3.1749999999999998
 74
0
  0
LTYPE
  5
3F
100
AcDbSymbolTableRecord
100
AcDbLinetypeTableRecord
  2
CENTERX2
 70
0
  3
Center (2x) ________  __  ________  __  _____
 72
65
 73
4
 40
101.5999999999999943
 49
63.5
 74
0
 49
-12.6999999999999993
 74
0
 49
12.6999999999999993
 74
0
 49
-12.6999999999999993
 74
0
  0
LTYPE
  5
40
100
AcDbSymbolTableRecord
100
AcDbLinetypeTableRecord
  2
BORDER
 70
0
  3
Border __ __ . __ __ . __ __ . __ __ . __ __ .
 72
65
 73
6
 40
44.4500000000000028
 49
12.6999999999999993
 74
0
 49
-6.3499999999999996
 74
0
 49
12.6999999999999993
 74
0
 49
-6.3499999999999996
 74
0
 49
0.0
 74
0
 49
-6.3499999999999996
 74
0
  0
LTYPE
  5
41
100
AcDbSymbolTableRecord
100
AcDbLinetypeTableRecord
  2
BORDER2
 70
0
  3
Border (.5x) __.__.__.__.__.__.__.__.__.__.__.
 72
65
 73
6
 40
22.2250000000000014
 49
6.3499999999999996
 74
0
 49
-3.1749999999999998
 74
0
 49
6.3499999999999996
 74
0
 49
-3.1749999999999998
 74
0
 49
0.0
 74
0
 49
-3.1749999999999998
 74
0
  0
LTYPE
  5
42
100
AcDbSymbolTableRecord
100
AcDbLinetypeTableRecord
  2
BORDERX2
 70
0
  3
Border (2x) ____  ____  .  ____  ____  .  ___
 72
65
 73
6
 40
88.9000000000000057
 49
25.3999999999999986
 74
0
 49
-12.6999999999999993
 74
0
 49
25.3999999999999986
 74
0
 49
-12.6999999999999993
 74
0
 49
0.0
 74
0
 49
-12.6999999999999993
 74
0
  0
ENDTAB
  0
TABLE
  2
LAYER
  5
2
100
AcDbSymbolTable
 70
6
  0
LAYER
  5
10
100
AcDbSymbolTableRecord
100
AcDbLayerTableRecord
  2
0
 70
0
 62
7
  6
CONTINUOUS
370
0
390
F
  0
LAYER
  5
43
100
AcDbSymbolTableRecord
100
AcDbLayerTableRecord
  2
1
 70
0
 62
6
  6
CONTINUOUS
370
0
390
F
  0
LAYER
  5
44
100
AcDbSymbolTableRecord
100
AcDbLayerTableRecord
  2
2
 70
0
 62
2
  6
CONTINUOUS
370
0
390
F
  0
LAYER
  5
45
100
AcDbSymbolTableRecord
100
AcDbLayerTableRecord
  2
3
 70
0
 62
3
  6
CONTINUOUS
370
0
390
F
  0
LAYER
  5
46
100
AcDbSymbolTableRecord
100
AcDbLayerTableRecord
  2
4
 70
0
 62
1
  6
CONTINUOUS
370
0
390
F
  0
LAYER
  5
47
100
AcDbSymbolTableRecord
100
AcDbLayerTableRecord
  2
5
 70
0
 62
5
  6
CONTINUOUS
370
0
390
F
  0
ENDTAB
  0
TABLE
  2
STYLE
  5
3
100
AcDbSymbolTable
 70
1
  0
STYLE
  5
11
100
AcDbSymbolTableRecord
100
AcDbTextStyleTableRecord
  2
Standard
 70
0
 40
0.0
 41
0.75
 50
0.0
 71
0
 42
2.5
  3
txt
  4

  0
ENDTAB
  0
TABLE
  2
VIEW
  5
6
100
AcDbSymbolTable
 70
0
  0
ENDTAB
  0
TABLE
  2
UCS
  5
7
100
AcDbSymbolTable
 70
0
  0
ENDTAB
  0
TABLE
  2
APPID
  5
9
100
AcDbSymbolTable
 70
1
  0
APPID
  5
12
100
AcDbSymbolTableRecord
100
AcDbRegAppTableRecord
  2
ACAD
 70
0
  0
ENDTAB
  0
TABLE
  2
DIMSTYLE
  5
A
100
AcDbSymbolTable
 70
1
100
AcDbDimStyleTable
 71
0
  0
DIMSTYLE
105
27
100
AcDbSymbolTableRecord
100
AcDbDimStyleTableRecord
  2
Standard
 41
2.5
 42
0.625
 43
3.75
 44
1.25
 70
0
 73
0
 74
0
 77
1
 78
8
140
2.5
141
2.5
143
0.03937007874016
147
0.625
171
3
172
1
271
2
272
2
274
3
278
44
283
0
284
8
340
11
  0
ENDTAB
  0
TABLE
  2
BLOCK_RECORD
  5
1
100
AcDbSymbolTable
 70
1
  0
BLOCK_RECORD
  5
1F
100
AcDbSymbolTableRecord
100
AcDbBlockTableRecord
  2
*Model_Space
340
22
  0
BLOCK_RECORD
  5
1B
100
AcDbSymbolTableRecord
100
AcDbBlockTableRecord
  2
*Paper_Space
340
1E
  0
BLOCK_RECORD
  5
23
100
AcDbSymbolTableRecord
100
AcDbBlockTableRecord
  2
*Paper_Space0
340
26
  0
ENDTAB
  0
ENDSEC
  0
SECTION
  2
BLOCKS
  0
BLOCK
  5
20
100
AcDbEntity
  8
0
100
AcDbBlockBegin
  2
*Model_Space
 70
0
 10
0.0
 20
0.0
 30
0.0
  3
*Model_Space
  1

  0
ENDBLK
  5
21
100
AcDbEntity
  8
0
100
AcDbBlockEnd
  0
BLOCK
  5
1C
100
AcDbEntity
 67
1
  8
0
100
AcDbBlockBegin
  2
*Paper_Space
 70
0
 10
0.0
 20
0.0
 30
0.0
  3
*Paper_Space
  1

  0
ENDBLK
  5
1D
100
AcDbEntity
 67
1
  8
0
100
AcDbBlockEnd
  0
BLOCK
  5
24
100
AcDbEntity
  8
0
100
AcDbBlockBegin
  2
*Paper_Space0
 70
0
 10
0.0
 20
0.0
 30
0.0
  3
*Paper_Space0
  1

  0
ENDBLK
  5
25
100
AcDbEntity
  8
0
100
AcDbBlockEnd
  0
ENDSEC
  0
SECTION
  2
ENTITIES
  0
LINE
5
48
100
AcDbEntity
100
AcDbLine
8
3
62
256
370
-1
6
ByLayer
10
20.0
20
0.0
30
0.0
11
19.9969539031
21
0.349048128746
31
0.0
0
LINE
5
49
100
AcDbEntity
100
AcDbLine
8
3
62
256
370
-1
6
ByLayer
10
19.9969539031
20
0.349048128746
30
0.0
11
19.9878165404
21
0.69798993405
31
0.0
0
LINE
5
50
100
AcDbEntity
100
AcDbLine
8
3
62
256
370
-1
6
ByLayer
10
19.9878165404
20
0.69798993405
30
0.0
11
19.9725906951
21
1.04671912486
31
0.0
0
LINE
5
51
100
AcDbEntity
100
AcDbLine
8
3
62
256
370
-1
6
ByLayer
10
19.9725906951
20
1.04671912486
30
0.0
11
19.9512810052
21
1.39512947488
31
0.0
0
LINE
5
52
100
AcDbEntity
100
AcDbLine
8
3
62
256
370
-1
6
ByLayer
10
19.9512810052
20
1.39512947488
30
0.0
11
19.9238939618
21
1.74311485495
31
0.0
0
LINE
5
53
100
AcDbEntity
100
AcDbLine
8
3
62
256
370
-1
6
ByLayer
10
19.9238939618
20
1.74311485495
30
0.0
11
19.8904379074
21
2.09056926535
31
0.0
0
LINE
5
54
100
AcDbEntity
100
AcDbLine
8
3
62
256
370
-1
6
ByLayer
10
19.8904379074
20
2.09056926535
30
0.0
11
19.8509230328
21
2.4373868681
31
0.0
0
LINE
5
55
100
AcDbEntity
100
AcDbLine
8
3
62
256
370
-1
6
ByLayer
10
19.8509230328
20
2.4373868681
30
0.0
11
19.8053613748
21
2.7834620192
31
0.0
0
LINE
5
56
100
AcDbEntity
100
AcDbLine
8
3
62
256
370
-1
6
ByLayer
10
19.8053613748
20
2.7834620192
30
0.0
11
19.7537668119
21
3.1286893008
31
0.0
0
LINE
5
57
100
AcDbEntity
100
AcDbLine
8
3
62
256
370
-1
6
ByLayer
10
19.7537668119
20
3.1286893008
30
0.0
11
19.6961550602
21
3.47296355334
31
0.0
0
LINE
5
58
100
AcDbEntity
100
AcDbLine
8
3
62
256
370
-1
6
ByLayer
10
19.6961550602
20
3.47296355334
30
0.0
11
19.632543669
21
3.81617990753
31
0.0
0
LINE
5
59
100
AcDbEntity
100
AcDbLine
8
3
62
256
370
-1
6
ByLayer
10
19.632543669
20
3.81617990753
30
0.0
11
19.5629520147
21
4.15823381636
31
0.0
0
LINE
5
60
100
AcDbEntity
100
AcDbLine
8
3
62
256
370
-1
6
ByLayer
10
19.5629520147
20
4.15823381636
30
0.0
11
19.4874012957
21
4.49902108688
31
0.0
0
LINE
5
61
100
AcDbEntity
100
AcDbLine
8
3
62
256
370
-1
6
ByLayer
10
19.4874012957
20
4.49902108688
30
0.0
11
19.4059145255
21
4.83843791199
31
0.0
0
LINE
5
62
100
AcDbEntity
100
AcDbLine
8
3
62
256
370
-1
6
ByLayer
10
19.4059145255
20
4.83843791199
30
0.0
11
19.3185165258
21
5.17638090205
31
0.0
0
LINE
5
63
100
AcDbEntity
100
AcDbLine
8
3
62
256
370
-1
6
ByLayer
10
19.3185165258
20
5.17638090205
30
0.0
11
19.2252339188
21
5.51274711634
31
0.0
0
LINE
5
64
100
AcDbEntity
100
AcDbLine
8
3
62
256
370
-1
6
ByLayer
10
19.2252339188
20
5.51274711634
30
0.0
11
19.1260951193
21
5.84743409445
31
0.0
0
LINE
5
65
100
AcDbEntity
100
AcDbLine
8
3
62
256
370
-1
6
ByLayer
10
19.1260951193
20
5.84743409445
30
0.0
11
19.0211303259
21
6.1803398875
31
0.0
0
LINE
5
66
100
AcDbEntity
100
AcDbLine
8
3
62
256
370
-1
6
ByLayer
10
19.0211303259
20
6.1803398875
30
0.0
11
18.910371512
21
6.51136308914
31
0.0
0
LINE
5
67
100
AcDbEntity
100
AcDbLine
8
3
62
256
370
-1
6
ByLayer
10
18.910371512
20
6.51136308914
30
0.0
11
18.7938524157
21
6.84040286651
31
0.0
0
LINE
5
68
100
AcDbEntity
100
AcDbLine
8
3
62
256
370
-1
6
ByLayer
10
18.7938524157
20
6.84040286651
30
0.0
11
18.6716085299
21
7.16735899091
31
0.0
0
LINE
5
69
100
AcDbEntity
100
AcDbLine
8
3
62
256
370
-1
6
ByLayer
10
18.6716085299
20
7.16735899091
30
0.0
11
18.5436770913
21
7.49213186832
31
0.0
0
LINE
5
70
100
AcDbEntity
100
AcDbLine
8
3
62
256
370
-1
6
ByLayer
10
18.5436770913
20
7.49213186832
30
0.0
11
18.410097069
21
7.81462256979
31
0.0
0
LINE
5
71
100
AcDbEntity
100
AcDbLine
8
3
62
256
370
-1
6
ByLayer
10
18.410097069
20
7.81462256979
30
0.0
11
18.2709091529
21
8.13473286152
31
0.0
0
LINE
5
72
100
AcDbEntity
100
AcDbLine
8
3
62
256
370
-1
6
ByLayer
10
18.2709091529
20
8.13473286152
30
0.0
11
18.1261557407
21
8.45236523481
31
0.0
0
LINE
5
73
100
AcDbEntity
100
AcDbLine
8
3
62
256
370
-1
6
ByLayer
10
18.1261557407
20
8.45236523481
30
0.0
11
17.975880926
21
8.76742293578
31
0.0
0
LINE
5
74
100
AcDbEntity
100
AcDbLine
8
3
62
256
370
-1
6
ByLayer
10
17.975880926
20
8.76742293578
30
0.0
11
17.8201304838
21
9.07980999479
31
0.0
0
LINE
5
75
100
AcDbEntity
100
AcDbLine
8
3
62
256
370
-1
6
ByLayer
10
17.8201304838
20
9.07980999479
30
0.0
11
17.6589518572
21
9.38943125572
31
0.0
0
LINE
5
76
100
AcDbEntity
100
AcDbLine
8
3
62
256
370
-1
6
ByLayer
10
17.6589518572
20
9.38943125572
30
0.0
11
17.4923941428
21
9.69619240493
31
0.0
0
LINE
5
77
100
AcDbEntity
100
AcDbLine
8
3
62
256
370
-1
6
ByLayer
10
17.4923941428
20
9.69619240493
30
0.0
11
17.3205080757
21
10.0
31
0.0
0
LINE
5
78
100
AcDbEntity
100
AcDbLine
8
3
62
256
370
-1
6
ByLayer
10
17.3205080757
20
10.0
30
0.0
11
17.143346014
21
10.3007614982
31
0.0
0
LINE
5
79
100
AcDbEntity
100
AcDbLine
8
3
62
256
370
-1
6
ByLayer
10
17.143346014
20
10.3007614982
30
0.0
11
16.9609619231
21
10.5983852847
31
0.0
0
LINE
5
80
100
AcDbEntity
100
AcDbLine
8
3
62
256
370
-1
6
ByLayer
10
16.9609619231
20
10.5983852847
30
0.0
11
16.7734113589
21
10.8927807003
31
0.0
0
LINE
5
81
100
AcDbEntity
100
AcDbLine
8
3
62
256
370
-1
6
ByLayer
10
16.7734113589
20
10.8927807003
30
0.0
11
16.5807514511
21
11.1838580694
31
0.0
0
LINE
5
82
100
AcDbEntity
100
AcDbLine
8
3
62
256
370
-1
6
ByLayer
10
16.5807514511
20
11.1838580694
30
0.0
11
16.3830408858
21
11.471528727
31
0.0
0
LINE
5
83
100
AcDbEntity
100
AcDbLine
8
3
62
256
370
-1
6
ByLayer
10
16.3830408858
20
11.471528727
30
0.0
11
16.1803398875
21
11.7557050458
31
0.0
0
LINE
5
84
100
AcDbEntity
100
AcDbLine
8
3
62
256
370
-1
6
ByLayer
10
16.1803398875
20
11.7557050458
30
0.0
11
15.9727102009
21
12.036300463
31
0.0
0
LINE
5
85
100
AcDbEntity
100
AcDbLine
8
3
62
256
370
-1
6
ByLayer
10
15.9727102009
20
12.036300463
30
0.0
11
15.7602150721
21
12.3132295065
31
0.0
0
LINE
5
86
100
AcDbEntity
100
AcDbLine
8
3
62
256
370
-1
6
ByLayer
10
15.7602150721
20
12.3132295065
30
0.0
11
15.5429192291
21
12.586407821
31
0.0
0
LINE
5
87
100
AcDbEntity
100
AcDbLine
8
3
62
256
370
-1
6
ByLayer
10
15.5429192291
20
12.586407821
30
0.0
11
15.3208888624
21
12.8557521937
31
0.0
0
LINE
5
88
100
AcDbEntity
100
AcDbLine
8
3
62
256
370
-1
6
ByLayer
10
15.3208888624
20
12.8557521937
30
0.0
11
15.0941916045
21
13.1211805798
31
0.0
0
LINE
5
89
100
AcDbEntity
100
AcDbLine
8
3
62
256
370
-1
6
ByLayer
10
15.0941916045
20
13.1211805798
30
0.0
11
14.8628965095
21
13.3826121272
31
0.0
0
LINE
5
90
100
AcDbEntity
100
AcDbLine
8
3
62
256
370
-1
6
ByLayer
10
14.8628965095
20
13.3826121272
30
0.0
11
14.6270740324
21
13.6399672012
31
0.0
0
LINE
5
91
100
AcDbEntity
100
AcDbLine
8
3
62
256
370
-1
6
ByLayer
10
14.6270740324
20
13.6399672012
30
0.0
11
14.3867960068
21
13.8931674092
31
0.0
0
LINE
5
92
100
AcDbEntity
100
AcDbLine
8
3
62
256
370
-1
6
ByLayer
10
14.3867960068
20
13.8931674092
30
0.0
11
14.1421356237
21
14.1421356237
31
0.0
0
LINE
5
93
100
AcDbEntity
100
AcDbLine
8
3
62
256
370
-1
6
ByLayer
10
14.1421356237
20
14.1421356237
30
0.0
11
13.8931674092
21
14.3867960068
31
0.0
0
LINE
5
94
100
AcDbEntity
100
AcDbLine
8
3
62
256
370
-1
6
ByLayer
10
13.8931674092
20
14.3867960068
30
0.0
11
13.6399672012
21
14.6270740324
31
0.0
0
LINE
5
95
100
AcDbEntity
100
AcDbLine
8
3
62
256
370
-1
6
ByLayer
10
13.6399672012
20
14.6270740324
30
0.0
11
13.3826121272
21
14.8628965095
31
0.0
0
LINE
5
96
100
AcDbEntity
100
AcDbLine
8
3
62
256
370
-1
6
ByLayer
10
13.3826121272
20
14.8628965095
30
0.0
11
13.1211805798
21
15.0941916045
31
0.0
0
LINE
5
97
100
AcDbEntity
100
AcDbLine
8
3
62
256
370
-1
6
ByLayer
10
13.1211805798
20
15.0941916045
30
0.0
11
12.8557521937
21
15.3208888624
31
0.0
0
LINE
5
98
100
AcDbEntity
100
AcDbLine
8
3
62
256
370
-1
6
ByLayer
10
12.8557521937
20
15.3208888624
30
0.0
11
12.586407821
21
15.5429192291
31
0.0
0
LINE
5
99
100
AcDbEntity
100
AcDbLine
8
3
62
256
370
-1
6
ByLayer
10
12.586407821
20
15.5429192291
30
0.0
11
12.3132295065
21
15.7602150721
31
0.0
0
LINE
5
100
100
AcDbEntity
100
AcDbLine
8
3
62
256
370
-1
6
ByLayer
10
12.3132295065
20
15.7602150721
30
0.0
11
12.036300463
21
15.9727102009
31
0.0
0
LINE
5
101
100
AcDbEntity
100
AcDbLine
8
3
62
256
370
-1
6
ByLayer
10
12.036300463
20
15.9727102009
30
0.0
11
11.7557050458
21
16.1803398875
31
0.0
0
LINE
5
102
100
AcDbEntity
100
AcDbLine
8
3
62
256
370
-1
6
ByLayer
10
11.7557050458
20
16.1803398875
30
0.0
11
11.471528727
21
16.3830408858
31
0.0
0
LINE
5
103
100
AcDbEntity
100
AcDbLine
8
3
62
256
370
-1
6
ByLayer
10
11.471528727
20
16.3830408858
30
0.0
11
11.1838580694
21
16.5807514511
31
0.0
0
LINE
5
104
100
AcDbEntity
100
AcDbLine
8
3
62
256
370
-1
6
ByLayer
10
11.1838580694
20
16.5807514511
30
0.0
11
10.8927807003
21
16.7734113589
31
0.0
0
LINE
5
105
100
AcDbEntity
100
AcDbLine
8
3
62
256
370
-1
6
ByLayer
10
10.8927807003
20
16.7734113589
30
0.0
11
10.5983852847
21
16.9609619231
31
0.0
0
LINE
5
106
100
AcDbEntity
100
AcDbLine
8
3
62
256
370
-1
6
ByLayer
10
10.5983852847
20
16.9609619231
30
0.0
11
10.3007614982
21
17.143346014
31
0.0
0
LINE
5
107
100
AcDbEntity
100
AcDbLine
8
3
62
256
370
-1
6
ByLayer
10
10.3007614982
20
17.143346014
30
0.0
11
10.0
21
17.3205080757
31
0.0
0
LINE
5
108
100
AcDbEntity
100
AcDbLine
8
3
62
256
370
-1
6
ByLayer
10
10.0
20
17.3205080757
30
0.0
11
9.69619240493
21
17.4923941428
31
0.0
0
LINE
5
109
100
AcDbEntity
100
AcDbLine
8
3
62
256
370
-1
6
ByLayer
10
9.69619240493
20
17.4923941428
30
0.0
11
9.38943125572
21
17.6589518572
31
0.0
0
LINE
5
110
100
AcDbEntity
100
AcDbLine
8
3
62
256
370
-1
6
ByLayer
10
9.38943125572
20
17.6589518572
30
0.0
11
9.07980999479
21
17.8201304838
31
0.0
0
LINE
5
111
100
AcDbEntity
100
AcDbLine
8
3
62
256
370
-1
6
ByLayer
10
9.07980999479
20
17.8201304838
30
0.0
11
8.76742293578
21
17.975880926
31
0.0
0
LINE
5
112
100
AcDbEntity
100
AcDbLine
8
3
62
256
370
-1
6
ByLayer
10
8.76742293578
20
17.975880926
30
0.0
11
8.45236523481
21
18.1261557407
31
0.0
0
LINE
5
113
100
AcDbEntity
100
AcDbLine
8
3
62
256
370
-1
6
ByLayer
10
8.45236523481
20
18.1261557407
30
0.0
11
8.13473286152
21
18.2709091529
31
0.0
0
LINE
5
114
100
AcDbEntity
100
AcDbLine
8
3
62
256
370
-1
6
ByLayer
10
8.13473286152
20
18.2709091529
30
0.0
11
7.81462256979
21
18.410097069
31
0.0
0
LINE
5
115
100
AcDbEntity
100
AcDbLine
8
3
62
256
370
-1
6
ByLayer
10
7.81462256979
20
18.410097069
30
0.0
11
7.49213186832
21
18.5436770913
31
0.0
0
LINE
5
116
100
AcDbEntity
100
AcDbLine
8
3
62
256
370
-1
6
ByLayer
10
7.49213186832
20
18.5436770913
30
0.0
11
7.16735899091
21
18.6716085299
31
0.0
0
LINE
5
117
100
AcDbEntity
100
AcDbLine
8
3
62
256
370
-1
6
ByLayer
10
7.16735899091
20
18.6716085299
30
0.0
11
6.84040286651
21
18.7938524157
31
0.0
0
LINE
5
118
100
AcDbEntity
100
AcDbLine
8
3
62
256
370
-1
6
ByLayer
10
6.84040286651
20
18.7938524157
30
0.0
11
6.51136308914
21
18.910371512
31
0.0
0
LINE
5
119
100
AcDbEntity
100
AcDbLine
8
3
62
256
370
-1
6
ByLayer
10
6.51136308914
20
18.910371512
30
0.0
11
6.1803398875
21
19.0211303259
31
0.0
0
LINE
5
120
100
AcDbEntity
100
AcDbLine
8
3
62
256
370
-1
6
ByLayer
10
6.1803398875
20
19.0211303259
30
0.0
11
5.84743409445
21
19.1260951193
31
0.0
0
LINE
5
121
100
AcDbEntity
100
AcDbLine
8
3
62
256
370
-1
6
ByLayer
10
5.84743409445
20
19.1260951193
30
0.0
11
5.51274711634
21
19.2252339188
31
0.0
0
LINE
5
122
100
AcDbEntity
100
AcDbLine
8
3
62
256
370
-1
6
ByLayer
10
5.51274711634
20
19.2252339188
30
0.0
11
5.17638090205
21
19.3185165258
31
0.0
0
LINE
5
123
100
AcDbEntity
100
AcDbLine
8
3
62
256
370
-1
6
ByLayer
10
5.17638090205
20
19.3185165258
30
0.0
11
4.83843791199
21
19.4059145255
31
0.0
0
LINE
5
124
100
AcDbEntity
100
AcDbLine
8
3
62
256
370
-1
6
ByLayer
10
4.83843791199
20
19.4059145255
30
0.0
11
4.49902108688
21
19.4874012957
31
0.0
0
LINE
5
125
100
AcDbEntity
100
AcDbLine
8
3
62
256
370
-1
6
ByLayer
10
4.49902108688
20
19.4874012957
30
0.0
11
4.15823381636
21
19.5629520147
31
0.0
0
LINE
5
126
100
AcDbEntity
100
AcDbLine
8
3
62
256
370
-1
6
ByLayer
10
4.15823381636
20
19.5629520147
30
0.0
11
3.81617990753
21
19.632543669
31
0.0
0
LINE
5
127
100
AcDbEntity
100
AcDbLine
8
3
62
256
370
-1
6
ByLayer
10
3.81617990753
20
19.632543669
30
0.0
11
3.47296355334
21
19.6961550602
31
0.0
0
LINE
5
128
100
AcDbEntity
100
AcDbLine
8
3
62
256
370
-1
6
ByLayer
10
3.47296355334
20
19.6961550602
30
0.0
11
3.1286893008
21
19.7537668119
31
0.0
0
LINE
5
129
100
AcDbEntity
100
AcDbLine
8
3
62
256
370
-1
6
ByLayer
10
3.1286893008
20
19.7537668119
30
0.0
11
2.7834620192
21
19.8053613748
31
0.0
0
LINE
5
130
100
AcDbEntity
100
AcDbLine
8
3
62
256
370
-1
6
ByLayer
10
2.7834620192
20
19.8053613748
30
0.0
11
2.4373868681
21
19.8509230328
31
0.0
0
LINE
5
131
100
AcDbEntity
100
AcDbLine
8
3
62
256
370
-1
6
ByLayer
10
2.4373868681
20
19.8509230328
30
0.0
11
2.09056926535
21
19.8904379074
31
0.0
0
LINE
5
132
100
AcDbEntity
100
AcDbLine
8
3
62
256
370
-1
6
ByLayer
10
2.09056926535
20
19.8904379074
30
0.0
11
1.74311485495
21
19.9238939618
31
0.0
0
LINE
5
133
100
AcDbEntity
100
AcDbLine
8
3
62
256
370
-1
6
ByLayer
10
1.74311485495
20
19.9238939618
30
0.0
11
1.39512947488
21
19.9512810052
31
0.0
0
LINE
5
134
100
AcDbEntity
100
AcDbLine
8
3
62
256
370
-1
6
ByLayer
10
1.39512947488
20
19.9512810052
30
0.0
11
1.04671912486
21
19.9725906951
31
0.0
0
LINE
5
135
100
AcDbEntity
100
AcDbLine
8
3
62
256
370
-1
6
ByLayer
10
1.04671912486
20
19.9725906951
30
0.0
11
0.69798993405
21
19.9878165404
31
0.0
0
LINE
5
136
100
AcDbEntity
100
AcDbLine
8
3
62
256
370
-1
6
ByLayer
10
0.69798993405
20
19.9878165404
30
0.0
11
0.349048128746
21
19.9969539031
31
0.0
0
LINE
5
137
100
AcDbEntity
100
AcDbLine
8
3
62
256
370
-1
6
ByLayer
10
0.349048128746
20
19.9969539031
30
0.0
11
1.22460635382e-15
21
20.0
31
0.0
0
LINE
5
138
100
AcDbEntity
100
AcDbLine
8
3
62
256
370
-1
6
ByLayer
10
1.22460635382e-15
20
20.0
30
0.0
11
-0.349048128746
21
19.9969539031
31
0.0
0
LINE
5
139
100
AcDbEntity
100
AcDbLine
8
3
62
256
370
-1
6
ByLayer
10
-0.349048128746
20
19.9969539031
30
0.0
11
-0.69798993405
21
19.9878165404
31
0.0
0
LINE
5
140
100
AcDbEntity
100
AcDbLine
8
3
62
256
370
-1
6
ByLayer
10
-0.69798993405
20
19.9878165404
30
0.0
11
-1.04671912486
21
19.9725906951
31
0.0
0
LINE
5
141
100
AcDbEntity
100
AcDbLine
8
3
62
256
370
-1
6
ByLayer
10
-1.04671912486
20
19.9725906951
30
0.0
11
-1.39512947488
21
19.9512810052
31
0.0
0
LINE
5
142
100
AcDbEntity
100
AcDbLine
8
3
62
256
370
-1
6
ByLayer
10
-1.39512947488
20
19.9512810052
30
0.0
11
-1.74311485495
21
19.9238939618
31
0.0
0
LINE
5
143
100
AcDbEntity
100
AcDbLine
8
3
62
256
370
-1
6
ByLayer
10
-1.74311485495
20
19.9238939618
30
0.0
11
-2.09056926535
21
19.8904379074
31
0.0
0
LINE
5
144
100
AcDbEntity
100
AcDbLine
8
3
62
256
370
-1
6
ByLayer
10
-2.09056926535
20
19.8904379074
30
0.0
11
-2.4373868681
21
19.8509230328
31
0.0
0
LINE
5
145
100
AcDbEntity
100
AcDbLine
8
3
62
256
370
-1
6
ByLayer
10
-2.4373868681
20
19.8509230328
30
0.0
11
-2.7834620192
21
19.8053613748
31
0.0
0
LINE
5
146
100
AcDbEntity
100
AcDbLine
8
3
62
256
370
-1
6
ByLayer
10
-2.7834620192
20
19.8053613748
30
0.0
11
-3.1286893008
21
19.7537668119
31
0.0
0
LINE
5
147
100
AcDbEntity
100
AcDbLine
8
3
62
256
370
-1
6
ByLayer
10
-3.1286893008
20
19.7537668119
30
0.0
11
-3.47296355334
21
19.6961550602
31
0.0
0
LINE
5
148
100
AcDbEntity
100
AcDbLine
8
3
62
256
370
-1
6
ByLayer
10
-3.47296355334
20
19.6961550602
30
0.0
11
-3.81617990753
21
19.632543669
31
0.0
0
LINE
5
149
100
AcDbEntity
100
AcDbLine
8
3
62
256
370
-1
6
ByLayer
10
-3.81617990753
20
19.632543669
30
0.0
11
-4.15823381636
21
19.5629520147
31
0.0
0
LINE
5
150
100
AcDbEntity
100
AcDbLine
8
3
62
256
370
-1
6
ByLayer
10
-4.15823381636
20
19.5629520147
30
0.0
11
-4.49902108688
21
19.4874012957
31
0.0
0
LINE
5
151
100
AcDbEntity
100
AcDbLine
8
3
62
256
370
-1
6
ByLayer
10
-4.49902108688
20
19.4874012957
30
0.0
11
-4.83843791199
21
19.4059145255
31
0.0
0
LINE
5
152
100
AcDbEntity
100
AcDbLine
8
3
62
256
370
-1
6
ByLayer
10
-4.83843791199
20
19.4059145255
30
0.0
11
-5.17638090205
21
19.3185165258
31
0.0
0
LINE
5
153
100
AcDbEntity
100
AcDbLine
8
3
62
256
370
-1
6
ByLayer
10
-5.17638090205
20
19.3185165258
30
0.0
11
-5.51274711634
21
19.2252339188
31
0.0
0
LINE
5
154
100
AcDbEntity
100
AcDbLine
8
3
62
256
370
-1
6
ByLayer
10
-5.51274711634
20
19.2252339188
30
0.0
11
-5.84743409445
21
19.1260951193
31
0.0
0
LINE
5
155
100
AcDbEntity
100
AcDbLine
8
3
62
256
370
-1
6
ByLayer
10
-5.84743409445
20
19.1260951193
30
0.0
11
-6.1803398875
21
19.0211303259
31
0.0
0
LINE
5
156
100
AcDbEntity
100
AcDbLine
8
3
62
256
370
-1
6
ByLayer
10
-6.1803398875
20
19.0211303259
30
0.0
11
-6.51136308914
21
18.910371512
31
0.0
0
LINE
5
157
100
AcDbEntity
100
AcDbLine
8
3
62
256
370
-1
6
ByLayer
10
-6.51136308914
20
18.910371512
30
0.0
11
-6.84040286651
21
18.7938524157
31
0.0
0
LINE
5
158
100
AcDbEntity
100
AcDbLine
8
3
62
256
370
-1
6
ByLayer
10
-6.84040286651
20
18.7938524157
30
0.0
11
-7.16735899091
21
18.6716085299
31
0.0
0
LINE
5
159
100
AcDbEntity
100
AcDbLine
8
3
62
256
370
-1
6
ByLayer
10
-7.16735899091
20
18.6716085299
30
0.0
11
-7.49213186832
21
18.5436770913
31
0.0
0
LINE
5
160
100
AcDbEntity
100
AcDbLine
8
3
62
256
370
-1
6
ByLayer
10
-7.49213186832
20
18.5436770913
30
0.0
11
-7.81462256979
21
18.410097069
31
0.0
0
LINE
5
161
100
AcDbEntity
100
AcDbLine
8
3
62
256
370
-1
6
ByLayer
10
-7.81462256979
20
18.410097069
30
0.0
11
-8.13473286152
21
18.2709091529
31
0.0
0
LINE
5
162
100
AcDbEntity
100
AcDbLine
8
3
62
256
370
-1
6
ByLayer
10
-8.13473286152
20
18.2709091529
30
0.0
11
-8.45236523481
21
18.1261557407
31
0.0
0
LINE
5
163
100
AcDbEntity
100
AcDbLine
8
3
62
256
370
-1
6
ByLayer
10
-8.45236523481
20
18.1261557407
30
0.0
11
-8.76742293578
21
17.975880926
31
0.0
0
LINE
5
164
100
AcDbEntity
100
AcDbLine
8
3
62
256
370
-1
6
ByLayer
10
-8.76742293578
20
17.975880926
30
0.0
11
-9.07980999479
21
17.8201304838
31
0.0
0
LINE
5
165
100
AcDbEntity
100
AcDbLine
8
3
62
256
370
-1
6
ByLayer
10
-9.07980999479
20
17.8201304838
30
0.0
11
-9.38943125572
21
17.6589518572
31
0.0
0
LINE
5
166
100
AcDbEntity
100
AcDbLine
8
3
62
256
370
-1
6
ByLayer
10
-9.38943125572
20
17.6589518572
30
0.0
11
-9.69619240493
21
17.4923941428
31
0.0
0
LINE
5
167
100
AcDbEntity
100
AcDbLine
8
3
62
256
370
-1
6
ByLayer
10
-9.69619240493
20
17.4923941428
30
0.0
11
-10.0
21
17.3205080757
31
0.0
0
LINE
5
168
100
AcDbEntity
100
AcDbLine
8
3
62
256
370
-1
6
ByLayer
10
-10.0
20
17.3205080757
30
0.0
11
-10.3007614982
21
17.143346014
31
0.0
0
LINE
5
169
100
AcDbEntity
100
AcDbLine
8
3
62
256
370
-1
6
ByLayer
10
-10.3007614982
20
17.143346014
30
0.0
11
-10.5983852847
21
16.9609619231
31
0.0
0
LINE
5
170
100
AcDbEntity
100
AcDbLine
8
3
62
256
370
-1
6
ByLayer
10
-10.5983852847
20
16.9609619231
30
0.0
11
-10.8927807003
21
16.7734113589
31
0.0
0
LINE
5
171
100
AcDbEntity
100
AcDbLine
8
3
62
256
370
-1
6
ByLayer
10
-10.8927807003
20
16.7734113589
30
0.0
11
-11.1838580694
21
16.5807514511
31
0.0
0
LINE
5
172
100
AcDbEntity
100
AcDbLine
8
3
62
256
370
-1
6
ByLayer
10
-11.1838580694
20
16.5807514511
30
0.0
11
-11.471528727
21
16.3830408858
31
0.0
0
LINE
5
173
100
AcDbEntity
100
AcDbLine
8
3
62
256
370
-1
6
ByLayer
10
-11.471528727
20
16.3830408858
30
0.0
11
-11.7557050458
21
16.1803398875
31
0.0
0
LINE
5
174
100
AcDbEntity
100
AcDbLine
8
3
62
256
370
-1
6
ByLayer
10
-11.7557050458
20
16.1803398875
30
0.0
11
-12.036300463
21
15.9727102009
31
0.0
0
LINE
5
175
100
AcDbEntity
100
AcDbLine
8
3
62
256
370
-1
6
ByLayer
10
-12.036300463
20
15.9727102009
30
0.0
11
-12.3132295065
21
15.7602150721
31
0.0
0
LINE
5
176
100
AcDbEntity
100
AcDbLine
8
3
62
256
370
-1
6
ByLayer
10
-12.3132295065
20
15.7602150721
30
0.0
11
-12.586407821
21
15.5429192291
31
0.0
0
LINE
5
177
100
AcDbEntity
100
AcDbLine
8
3
62
256
370
-1
6
ByLayer
10
-12.586407821
20
15.5429192291
30
0.0
11
-12.8557521937
21
15.3208888624
31
0.0
0
LINE
5
178
100
AcDbEntity
100
AcDbLine
8
3
62
256
370
-1
6
ByLayer
10
-12.8557521937
20
15.3208888624
30
0.0
11
-13.1211805798
21
15.0941916045
31
0.0
0
LINE
5
179
100
AcDbEntity
100
AcDbLine
8
3
62
256
370
-1
6
ByLayer
10
-13.1211805798
20
15.0941916045
30
0.0
11
-13.3826121272
21
14.8628965095
31
0.0
0
LINE
5
180
100
AcDbEntity
100
AcDbLine
8
3
62
256
370
-1
6
ByLayer
10
-13.3826121272
20
14.8628965095
30
0.0
11
-13.6399672012
21
14.6270740324
31
0.0
0
LINE
5
181
100
AcDbEntity
100
AcDbLine
8
3
62
256
370
-1
6
ByLayer
10
-13.6399672012
20
14.6270740324
30
0.0
11
-13.8931674092
21
14.3867960068
31
0.0
0
LINE
5
182
100
AcDbEntity
100
AcDbLine
8
3
62
256
370
-1
6
ByLayer
10
-13.8931674092
20
14.3867960068
30
0.0
11
-14.1421356237
21
14.1421356237
31
0.0
0
LINE
5
183
100
AcDbEntity
100
AcDbLine
8
3
62
256
370
-1
6
ByLayer
10
-14.1421356237
20
14.1421356237
30
0.0
11
-14.3867960068
21
13.8931674092
31
0.0
0
LINE
5
184
100
AcDbEntity
100
AcDbLine
8
3
62
256
370
-1
6
ByLayer
10
-14.3867960068
20
13.8931674092
30
0.0
11
-14.6270740324
21
13.6399672012
31
0.0
0
LINE
5
185
100
AcDbEntity
100
AcDbLine
8
3
62
256
370
-1
6
ByLayer
10
-14.6270740324
20
13.6399672012
30
0.0
11
-14.8628965095
21
13.3826121272
31
0.0
0
LINE
5
186
100
AcDbEntity
100
AcDbLine
8
3
62
256
370
-1
6
ByLayer
10
-14.8628965095
20
13.3826121272
30
0.0
11
-15.0941916045
21
13.1211805798
31
0.0
0
LINE
5
187
100
AcDbEntity
100
AcDbLine
8
3
62
256
370
-1
6
ByLayer
10
-15.0941916045
20
13.1211805798
30
0.0
11
-15.3208888624
21
12.8557521937
31
0.0
0
LINE
5
188
100
AcDbEntity
100
AcDbLine
8
3
62
256
370
-1
6
ByLayer
10
-15.3208888624
20
12.8557521937
30
0.0
11
-15.5429192291
21
12.586407821
31
0.0
0
LINE
5
189
100
AcDbEntity
100
AcDbLine
8
3
62
256
370
-1
6
ByLayer
10
-15.5429192291
20
12.586407821
30
0.0
11
-15.7602150721
21
12.3132295065
31
0.0
0
LINE
5
190
100
AcDbEntity
100
AcDbLine
8
3
62
256
370
-1
6
ByLayer
10
-15.7602150721
20
12.3132295065
30
0.0
11
-15.9727102009
21
12.036300463
31
0.0
0
LINE
5
191
100
AcDbEntity
100
AcDbLine
8
3
62
256
370
-1
6
ByLayer
10
-15.9727102009
20
12.036300463
30
0.0
11
-16.1803398875
21
11.7557050458
31
0.0
0
LINE
5
192
100
AcDbEntity
100
AcDbLine
8
3
62
256
370
-1
6
ByLayer
10
-16.1803398875
20
11.7557050458
30
0.0
11
-16.3830408858
21
11.471528727
31
0.0
0
LINE
5
193
100
AcDbEntity
100
AcDbLine
8
3
62
256
370
-1
6
ByLayer
10
-16.3830408858
20
11.471528727
30
0.0
11
-16.5807514511
21
11.1838580694
31
0.0
0
LINE
5
194
100
AcDbEntity
100
AcDbLine
8
3
62
256
370
-1
6
ByLayer
10
-16.5807514511
20
11.1838580694
30
0.0
11
-16.7734113589
21
10.8927807003
31
0.0
0
LINE
5
195
100
AcDbEntity
100
AcDbLine
8
3
62
256
370
-1
6
ByLayer
10
-16.7734113589
20
10.8927807003
30
0.0
11
-16.9609619231
21
10.5983852847
31
0.0
0
LINE
5
196
100
AcDbEntity
100
AcDbLine
8
3
62
256
370
-1
6
ByLayer
10
-16.9609619231
20
10.5983852847
30
0.0
11
-17.143346014
21
10.3007614982
31
0.0
0
LINE
5
197
100
AcDbEntity
100
AcDbLine
8
3
62
256
370
-1
6
ByLayer
10
-17.143346014
20
10.3007614982
30
0.0
11
-17.3205080757
21
10.0
31
0.0
0
LINE
5
198
100
AcDbEntity
100
AcDbLine
8
3
62
256
370
-1
6
ByLayer
10
-17.3205080757
20
10.0
30
0.0
11
-17.4923941428
21
9.69619240493
31
0.0
0
LINE
5
199
100
AcDbEntity
100
AcDbLine
8
3
62
256
370
-1
6
ByLayer
10
-17.4923941428
20
9.69619240493
30
0.0
11
-17.6589518572
21
9.38943125572
31
0.0
0
LINE
5
200
100
AcDbEntity
100
AcDbLine
8
3
62
256
370
-1
6
ByLayer
10
-17.6589518572
20
9.38943125572
30
0.0
11
-17.8201304838
21
9.07980999479
31
0.0
0
LINE
5
201
100
AcDbEntity
100
AcDbLine
8
3
62
256
370
-1
6
ByLayer
10
-17.8201304838
20
9.07980999479
30
0.0
11
-17.975880926
21
8.76742293578
31
0.0
0
LINE
5
202
100
AcDbEntity
100
AcDbLine
8
3
62
256
370
-1
6
ByLayer
10
-17.975880926
20
8.76742293578
30
0.0
11
-18.1261557407
21
8.45236523481
31
0.0
0
LINE
5
203
100
AcDbEntity
100
AcDbLine
8
3
62
256
370
-1
6
ByLayer
10
-18.1261557407
20
8.45236523481
30
0.0
11
-18.2709091529
21
8.13473286152
31
0.0
0
LINE
5
204
100
AcDbEntity
100
AcDbLine
8
3
62
256
370
-1
6
ByLayer
10
-18.2709091529
20
8.13473286152
30
0.0
11
-18.410097069
21
7.81462256979
31
0.0
0
LINE
5
205
100
AcDbEntity
100
AcDbLine
8
3
62
256
370
-1
6
ByLayer
10
-18.410097069
20
7.81462256979
30
0.0
11
-18.5436770913
21
7.49213186832
31
0.0
0
LINE
5
206
100
AcDbEntity
100
AcDbLine
8
3
62
256
370
-1
6
ByLayer
10
-18.5436770913
20
7.49213186832
30
0.0
11
-18.6716085299
21
7.16735899091
31
0.0
0
LINE
5
207
100
AcDbEntity
100
AcDbLine
8
3
62
256
370
-1
6
ByLayer
10
-18.6716085299
20
7.16735899091
30
0.0
11
-18.7938524157
21
6.84040286651
31
0.0
0
LINE
5
208
100
AcDbEntity
100
AcDbLine
8
3
62
256
370
-1
6
ByLayer
10
-18.7938524157
20
6.84040286651
30
0.0
11
-18.910371512
21
6.51136308914
31
0.0
0
LINE
5
209
100
AcDbEntity
100
AcDbLine
8
3
62
256
370
-1
6
ByLayer
10
-18.910371512
20
6.51136308914
30
0.0
11
-19.0211303259
21
6.1803398875
31
0.0
0
LINE
5
210
100
AcDbEntity
100
AcDbLine
8
3
62
256
370
-1
6
ByLayer
10
-19.0211303259
20
6.1803398875
30
0.0
11
-19.1260951193
21
5.84743409445
31
0.0
0
LINE
5
211
100
AcDbEntity
100
AcDbLine
8
3
62
256
370
-1
6
ByLayer
10
-19.1260951193
20
5.84743409445
30
0.0
11
-19.2252339188
21
5.51274711634
31
0.0
0
LINE
5
212
100
AcDbEntity
100
AcDbLine
8
3
62
256
370
-1
6
ByLayer
10
-19.2252339188
20
5.51274711634
30
0.0
11
-19.3185165258
21
5.17638090205
31
0.0
0
LINE
5
213
100
AcDbEntity
100
AcDbLine
8
3
62
256
370
-1
6
ByLayer
10
-19.3185165258
20
5.17638090205
30
0.0
11
-19.4059145255
21
4.83843791199
31
0.0
0
LINE
5
214
100
AcDbEntity
100
AcDbLine
8
3
62
256
370
-1
6
ByLayer
10
-19.4059145255
20
4.83843791199
30
0.0
11
-19.4874012957
21
4.49902108688
31
0.0
0
LINE
5
215
100
AcDbEntity
100
AcDbLine
8
3
62
256
370
-1
6
ByLayer
10
-19.4874012957
20
4.49902108688
30
0.0
11
-19.5629520147
21
4.15823381636
31
0.0
0
LINE
5
216
100
AcDbEntity
100
AcDbLine
8
3
62
256
370
-1
6
ByLayer
10
-19.5629520147
20
4.15823381636
30
0.0
11
-19.632543669
21
3.81617990753
31
0.0
0
LINE
5
217
100
AcDbEntity
100
AcDbLine
8
3
62
256
370
-1
6
ByLayer
10
-19.632543669
20
3.81617990753
30
0.0
11
-19.6961550602
21
3.47296355334
31
0.0
0
LINE
5
218
100
AcDbEntity
100
AcDbLine
8
3
62
256
370
-1
6
ByLayer
10
-19.6961550602
20
3.47296355334
30
0.0
11
-19.7537668119
21
3.1286893008
31
0.0
0
LINE
5
219
100
AcDbEntity
100
AcDbLine
8
3
62
256
370
-1
6
ByLayer
10
-19.7537668119
20
3.1286893008
30
0.0
11
-19.8053613748
21
2.7834620192
31
0.0
0
LINE
5
220
100
AcDbEntity
100
AcDbLine
8
3
62
256
370
-1
6
ByLayer
10
-19.8053613748
20
2.7834620192
30
0.0
11
-19.8509230328
21
2.4373868681
31
0.0
0
LINE
5
221
100
AcDbEntity
100
AcDbLine
8
3
62
256
370
-1
6
ByLayer
10
-19.8509230328
20
2.4373868681
30
0.0
11
-19.8904379074
21
2.09056926535
31
0.0
0
LINE
5
222
100
AcDbEntity
100
AcDbLine
8
3
62
256
370
-1
6
ByLayer
10
-19.8904379074
20
2.09056926535
30
0.0
11
-19.9238939618
21
1.74311485495
31
0.0
0
LINE
5
223
100
AcDbEntity
100
AcDbLine
8
3
62
256
370
-1
6
ByLayer
10
-19.9238939618
20
1.74311485495
30
0.0
11
-19.9512810052
21
1.39512947488
31
0.0
0
LINE
5
224
100
AcDbEntity
100
AcDbLine
8
3
62
256
370
-1
6
ByLayer
10
-19.9512810052
20
1.39512947488
30
0.0
11
-19.9725906951
21
1.04671912486
31
0.0
0
LINE
5
225
100
AcDbEntity
100
AcDbLine
8
3
62
256
370
-1
6
ByLayer
10
-19.9725906951
20
1.04671912486
30
0.0
11
-19.9878165404
21
0.69798993405
31
0.0
0
LINE
5
226
100
AcDbEntity
100
AcDbLine
8
3
62
256
370
-1
6
ByLayer
10
-19.9878165404
20
0.69798993405
30
0.0
11
-19.9969539031
21
0.349048128746
31
0.0
0
LINE
5
227
100
AcDbEntity
100
AcDbLine
8
3
62
256
370
-1
6
ByLayer
10
-19.9969539031
20
0.349048128746
30
0.0
11
-20.0
21
2.44921270764e-15
31
0.0
0
LINE
5
228
100
AcDbEntity
100
AcDbLine
8
3
62
256
370
-1
6
ByLayer
10
-20.0
20
2.44921270764e-15
30
0.0
11
-19.9969539031
21
-0.349048128746
31
0.0
0
LINE
5
229
100
AcDbEntity
100
AcDbLine
8
3
62
256
370
-1
6
ByLayer
10
-19.9969539031
20
-0.349048128746
30
0.0
11
-19.9878165404
21
-0.69798993405
31
0.0
0
LINE
5
230
100
AcDbEntity
100
AcDbLine
8
3
62
256
370
-1
6
ByLayer
10
-19.9878165404
20
-0.69798993405
30
0.0
11
-19.9725906951
21
-1.04671912486
31
0.0
0
LINE
5
231
100
AcDbEntity
100
AcDbLine
8
3
62
256
370
-1
6
ByLayer
10
-19.9725906951
20
-1.04671912486
30
0.0
11
-19.9512810052
21
-1.39512947488
31
0.0
0
LINE
5
232
100
AcDbEntity
100
AcDbLine
8
3
62
256
370
-1
6
ByLayer
10
-19.9512810052
20
-1.39512947488
30
0.0
11
-19.9238939618
21
-1.74311485495
31
0.0
0
LINE
5
233
100
AcDbEntity
100
AcDbLine
8
3
62
256
370
-1
6
ByLayer
10
-19.9238939618
20
-1.74311485495
30
0.0
11
-19.8904379074
21
-2.09056926535
31
0.0
0
LINE
5
234
100
AcDbEntity
100
AcDbLine
8
3
62
256
370
-1
6
ByLayer
10
-19.8904379074
20
-2.09056926535
30
0.0
11
-19.8509230328
21
-2.4373868681
31
0.0
0
LINE
5
235
100
AcDbEntity
100
AcDbLine
8
3
62
256
370
-1
6
ByLayer
10
-19.8509230328
20
-2.4373868681
30
0.0
11
-19.8053613748
21
-2.7834620192
31
0.0
0
LINE
5
236
100
AcDbEntity
100
AcDbLine
8
3
62
256
370
-1
6
ByLayer
10
-19.8053613748
20
-2.7834620192
30
0.0
11
-19.7537668119
21
-3.1286893008
31
0.0
0
LINE
5
237
100
AcDbEntity
100
AcDbLine
8
3
62
256
370
-1
6
ByLayer
10
-19.7537668119
20
-3.1286893008
30
0.0
11
-19.6961550602
21
-3.47296355334
31
0.0
0
LINE
5
238
100
AcDbEntity
100
AcDbLine
8
3
62
256
370
-1
6
ByLayer
10
-19.6961550602
20
-3.47296355334
30
0.0
11
-19.632543669
21
-3.81617990753
31
0.0
0
LINE
5
239
100
AcDbEntity
100
AcDbLine
8
3
62
256
370
-1
6
ByLayer
10
-19.632543669
20
-3.81617990753
30
0.0
11
-19.5629520147
21
-4.15823381636
31
0.0
0
LINE
5
240
100
AcDbEntity
100
AcDbLine
8
3
62
256
370
-1
6
ByLayer
10
-19.5629520147
20
-4.15823381636
30
0.0
11
-19.4874012957
21
-4.49902108688
31
0.0
0
LINE
5
241
100
AcDbEntity
100
AcDbLine
8
3
62
256
370
-1
6
ByLayer
10
-19.4874012957
20
-4.49902108688
30
0.0
11
-19.4059145255
21
-4.83843791199
31
0.0
0
LINE
5
242
100
AcDbEntity
100
AcDbLine
8
3
62
256
370
-1
6
ByLayer
10
-19.4059145255
20
-4.83843791199
30
0.0
11
-19.3185165258
21
-5.17638090205
31
0.0
0
LINE
5
243
100
AcDbEntity
100
AcDbLine
8
3
62
256
370
-1
6
ByLayer
10
-19.3185165258
20
-5.17638090205
30
0.0
11
-19.2252339188
21
-5.51274711634
31
0.0
0
LINE
5
244
100
AcDbEntity
100
AcDbLine
8
3
62
256
370
-1
6
ByLayer
10
-19.2252339188
20
-5.51274711634
30
0.0
11
-19.1260951193
21
-5.84743409445
31
0.0
0
LINE
5
245
100
AcDbEntity
100
AcDbLine
8
3
62
256
370
-1
6
ByLayer
10
-19.1260951193
20
-5.84743409445
30
0.0
11
-19.0211303259
21
-6.1803398875
31
0.0
0
LINE
5
246
100
AcDbEntity
100
AcDbLine
8
3
62
256
370
-1
6
ByLayer
10
-19.0211303259
20
-6.1803398875
30
0.0
11
-18.910371512
21
-6.51136308914
31
0.0
0
LINE
5
247
100
AcDbEntity
100
AcDbLine
8
3
62
256
370
-1
6
ByLayer
10
-18.910371512
20
-6.51136308914
30
0.0
11
-18.7938524157
21
-6.84040286651
31
0.0
0
LINE
5
248
100
AcDbEntity
100
AcDbLine
8
3
62
256
370
-1
6
ByLayer
10
-18.7938524157
20
-6.84040286651
30
0.0
11
-18.6716085299
21
-7.16735899091
31
0.0
0
LINE
5
249
100
AcDbEntity
100
AcDbLine
8
3
62
256
370
-1
6
ByLayer
10
-18.6716085299
20
-7.16735899091
30
0.0
11
-18.5436770913
21
-7.49213186832
31
0.0
0
LINE
5
250
100
AcDbEntity
100
AcDbLine
8
3
62
256
370
-1
6
ByLayer
10
-18.5436770913
20
-7.49213186832
30
0.0
11
-18.410097069
21
-7.81462256979
31
0.0
0
LINE
5
251
100
AcDbEntity
100
AcDbLine
8
3
62
256
370
-1
6
ByLayer
10
-18.410097069
20
-7.81462256979
30
0.0
11
-18.2709091529
21
-8.13473286152
31
0.0
0
LINE
5
252
100
AcDbEntity
100
AcDbLine
8
3
62
256
370
-1
6
ByLayer
10
-18.2709091529
20
-8.13473286152
30
0.0
11
-18.1261557407
21
-8.45236523481
31
0.0
0
LINE
5
253
100
AcDbEntity
100
AcDbLine
8
3
62
256
370
-1
6
ByLayer
10
-18.1261557407
20
-8.45236523481
30
0.0
11
-17.975880926
21
-8.76742293578
31
0.0
0
LINE
5
254
100
AcDbEntity
100
AcDbLine
8
3
62
256
370
-1
6
ByLayer
10
-17.975880926
20
-8.76742293578
30
0.0
11
-17.8201304838
21
-9.07980999479
31
0.0
0
LINE
5
255
100
AcDbEntity
100
AcDbLine
8
3
62
256
370
-1
6
ByLayer
10
-17.8201304838
20
-9.07980999479
30
0.0
11
-17.6589518572
21
-9.38943125572
31
0.0
0
LINE
5
256
100
AcDbEntity
100
AcDbLine
8
3
62
256
370
-1
6
ByLayer
10
-17.6589518572
20
-9.38943125572
30
0.0
11
-17.4923941428
21
-9.69619240493
31
0.0
0
LINE
5
257
100
AcDbEntity
100
AcDbLine
8
3
62
256
370
-1
6
ByLayer
10
-17.4923941428
20
-9.69619240493
30
0.0
11
-17.3205080757
21
-10.0
31
0.0
0
LINE
5
258
100
AcDbEntity
100
AcDbLine
8
3
62
256
370
-1
6
ByLayer
10
-17.3205080757
20
-10.0
30
0.0
11
-17.143346014
21
-10.3007614982
31
0.0
0
LINE
5
259
100
AcDbEntity
100
AcDbLine
8
3
62
256
370
-1
6
ByLayer
10
-17.143346014
20
-10.3007614982
30
0.0
11
-16.9609619231
21
-10.5983852847
31
0.0
0
LINE
5
260
100
AcDbEntity
100
AcDbLine
8
3
62
256
370
-1
6
ByLayer
10
-16.9609619231
20
-10.5983852847
30
0.0
11
-16.7734113589
21
-10.8927807003
31
0.0
0
LINE
5
261
100
AcDbEntity
100
AcDbLine
8
3
62
256
370
-1
6
ByLayer
10
-16.7734113589
20
-10.8927807003
30
0.0
11
-16.5807514511
21
-11.1838580694
31
0.0
0
LINE
5
262
100
AcDbEntity
100
AcDbLine
8
3
62
256
370
-1
6
ByLayer
10
-16.5807514511
20
-11.1838580694
30
0.0
11
-16.3830408858
21
-11.471528727
31
0.0
0
LINE
5
263
100
AcDbEntity
100
AcDbLine
8
3
62
256
370
-1
6
ByLayer
10
-16.3830408858
20
-11.471528727
30
0.0
11
-16.1803398875
21
-11.7557050458
31
0.0
0
LINE
5
264
100
AcDbEntity
100
AcDbLine
8
3
62
256
370
-1
6
ByLayer
10
-16.1803398875
20
-11.7557050458
30
0.0
11
-15.9727102009
21
-12.036300463
31
0.0
0
LINE
5
265
100
AcDbEntity
100
AcDbLine
8
3
62
256
370
-1
6
ByLayer
10
-15.9727102009
20
-12.036300463
30
0.0
11
-15.7602150721
21
-12.3132295065
31
0.0
0
LINE
5
266
100
AcDbEntity
100
AcDbLine
8
3
62
256
370
-1
6
ByLayer
10
-15.7602150721
20
-12.3132295065
30
0.0
11
-15.5429192291
21
-12.586407821
31
0.0
0
LINE
5
267
100
AcDbEntity
100
AcDbLine
8
3
62
256
370
-1
6
ByLayer
10
-15.5429192291
20
-12.586407821
30
0.0
11
-15.3208888624
21
-12.8557521937
31
0.0
0
LINE
5
268
100
AcDbEntity
100
AcDbLine
8
3
62
256
370
-1
6
ByLayer
10
-15.3208888624
20
-12.8557521937
30
0.0
11
-15.0941916045
21
-13.1211805798
31
0.0
0
LINE
5
269
100
AcDbEntity
100
AcDbLine
8
3
62
256
370
-1
6
ByLayer
10
-15.0941916045
20
-13.1211805798
30
0.0
11
-14.8628965095
21
-13.3826121272
31
0.0
0
LINE
5
270
100
AcDbEntity
100
AcDbLine
8
3
62
256
370
-1
6
ByLayer
10
-14.8628965095
20
-13.3826121272
30
0.0
11
-14.6270740324
21
-13.6399672012
31
0.0
0
LINE
5
271
100
AcDbEntity
100
AcDbLine
8
3
62
256
370
-1
6
ByLayer
10
-14.6270740324
20
-13.6399672012
30
0.0
11
-14.3867960068
21
-13.8931674092
31
0.0
0
LINE
5
272
100
AcDbEntity
100
AcDbLine
8
3
62
256
370
-1
6
ByLayer
10
-14.3867960068
20
-13.8931674092
30
0.0
11
-14.1421356237
21
-14.1421356237
31
0.0
0
LINE
5
273
100
AcDbEntity
100
AcDbLine
8
3
62
256
370
-1
6
ByLayer
10
-14.1421356237
20
-14.1421356237
30
0.0
11
-13.8931674092
21
-14.3867960068
31
0.0
0
LINE
5
274
100
AcDbEntity
100
AcDbLine
8
3
62
256
370
-1
6
ByLayer
10
-13.8931674092
20
-14.3867960068
30
0.0
11
-13.6399672012
21
-14.6270740324
31
0.0
0
LINE
5
275
100
AcDbEntity
100
AcDbLine
8
3
62
256
370
-1
6
ByLayer
10
-13.6399672012
20
-14.6270740324
30
0.0
11
-13.3826121272
21
-14.8628965095
31
0.0
0
LINE
5
276
100
AcDbEntity
100
AcDbLine
8
3
62
256
370
-1
6
ByLayer
10
-13.3826121272
20
-14.8628965095
30
0.0
11
-13.1211805798
21
-15.0941916045
31
0.0
0
LINE
5
277
100
AcDbEntity
100
AcDbLine
8
3
62
256
370
-1
6
ByLayer
10
-13.1211805798
20
-15.0941916045
30
0.0
11
-12.8557521937
21
-15.3208888624
31
0.0
0
LINE
5
278
100
AcDbEntity
100
AcDbLine
8
3
62
256
370
-1
6
ByLayer
10
-12.8557521937
20
-15.3208888624
30
0.0
11
-12.586407821
21
-15.5429192291
31
0.0
0
LINE
5
279
100
AcDbEntity
100
AcDbLine
8
3
62
256
370
-1
6
ByLayer
10
-12.586407821
20
-15.5429192291
30
0.0
11
-12.3132295065
21
-15.7602150721
31
0.0
0
LINE
5
280
100
AcDbEntity
100
AcDbLine
8
3
62
256
370
-1
6
ByLayer
10
-12.3132295065
20
-15.7602150721
30
0.0
11
-12.036300463
21
-15.9727102009
31
0.0
0
LINE
5
281
100
AcDbEntity
100
AcDbLine
8
3
62
256
370
-1
6
ByLayer
10
-12.036300463
20
-15.9727102009
30
0.0
11
-11.7557050458
21
-16.1803398875
31
0.0
0
LINE
5
282
100
AcDbEntity
100
AcDbLine
8
3
62
256
370
-1
6
ByLayer
10
-11.7557050458
20
-16.1803398875
30
0.0
11
-11.471528727
21
-16.3830408858
31
0.0
0
LINE
5
283
100
AcDbEntity
100
AcDbLine
8
3
62
256
370
-1
6
ByLayer
10
-11.471528727
20
-16.3830408858
30
0.0
11
-11.1838580694
21
-16.5807514511
31
0.0
0
LINE
5
284
100
AcDbEntity
100
AcDbLine
8
3
62
256
370
-1
6
ByLayer
10
-11.1838580694
20
-16.5807514511
30
0.0
11
-10.8927807003
21
-16.7734113589
31
0.0
0
LINE
5
285
100
AcDbEntity
100
AcDbLine
8
3
62
256
370
-1
6
ByLayer
10
-10.8927807003
20
-16.7734113589
30
0.0
11
-10.5983852847
21
-16.9609619231
31
0.0
0
LINE
5
286
100
AcDbEntity
100
AcDbLine
8
3
62
256
370
-1
6
ByLayer
10
-10.5983852847
20
-16.9609619231
30
0.0
11
-10.3007614982
21
-17.143346014
31
0.0
0
LINE
5
287
100
AcDbEntity
100
AcDbLine
8
3
62
256
370
-1
6
ByLayer
10
-10.3007614982
20
-17.143346014
30
0.0
11
-10.0
21
-17.3205080757
31
0.0
0
LINE
5
288
100
AcDbEntity
100
AcDbLine
8
3
62
256
370
-1
6
ByLayer
10
-10.0
20
-17.3205080757
30
0.0
11
-9.69619240493
21
-17.4923941428
31
0.0
0
LINE
5
289
100
AcDbEntity
100
AcDbLine
8
3
62
256
370
-1
6
ByLayer
10
-9.69619240493
20
-17.4923941428
30
0.0
11
-9.38943125572
21
-17.6589518572
31
0.0
0
LINE
5
290
100
AcDbEntity
100
AcDbLine
8
3
62
256
370
-1
6
ByLayer
10
-9.38943125572
20
-17.6589518572
30
0.0
11
-9.07980999479
21
-17.8201304838
31
0.0
0
LINE
5
291
100
AcDbEntity
100
AcDbLine
8
3
62
256
370
-1
6
ByLayer
10
-9.07980999479
20
-17.8201304838
30
0.0
11
-8.76742293578
21
-17.975880926
31
0.0
0
LINE
5
292
100
AcDbEntity
100
AcDbLine
8
3
62
256
370
-1
6
ByLayer
10
-8.76742293578
20
-17.975880926
30
0.0
11
-8.45236523481
21
-18.1261557407
31
0.0
0
LINE
5
293
100
AcDbEntity
100
AcDbLine
8
3
62
256
370
-1
6
ByLayer
10
-8.45236523481
20
-18.1261557407
30
0.0
11
-8.13473286152
21
-18.2709091529
31
0.0
0
LINE
5
294
100
AcDbEntity
100
AcDbLine
8
3
62
256
370
-1
6
ByLayer
10
-8.13473286152
20
-18.2709091529
30
0.0
11
-7.81462256979
21
-18.410097069
31
0.0
0
LINE
5
295
100
AcDbEntity
100
AcDbLine
8
3
62
256
370
-1
6
ByLayer
10
-7.81462256979
20
-18.410097069
30
0.0
11
-7.49213186832
21
-18.5436770913
31
0.0
0
LINE
5
296
100
AcDbEntity
100
AcDbLine
8
3
62
256
370
-1
6
ByLayer
10
-7.49213186832
20
-18.5436770913
30
0.0
11
-7.16735899091
21
-18.6716085299
31
0.0
0
LINE
5
297
100
AcDbEntity
100
AcDbLine
8
3
62
256
370
-1
6
ByLayer
10
-7.16735899091
20
-18.6716085299
30
0.0
11
-6.84040286651
21
-18.7938524157
31
0.0
0
LINE
5
298
100
AcDbEntity
100
AcDbLine
8
3
62
256
370
-1
6
ByLayer
10
-6.84040286651
20
-18.7938524157
30
0.0
11
-6.51136308914
21
-18.910371512
31
0.0
0
LINE
5
299
100
AcDbEntity
100
AcDbLine
8
3
62
256
370
-1
6
ByLayer
10
-6.51136308914
20
-18.910371512
30
0.0
11
-6.1803398875
21
-19.0211303259
31
0.0
0
LINE
5
300
100
AcDbEntity
100
AcDbLine
8
3
62
256
370
-1
6
ByLayer
10
-6.1803398875
20
-19.0211303259
30
0.0
11
-5.84743409445
21
-19.1260951193
31
0.0
0
LINE
5
301
100
AcDbEntity
100
AcDbLine
8
3
62
256
370
-1
6
ByLayer
10
-5.84743409445
20
-19.1260951193
30
0.0
11
-5.51274711634
21
-19.2252339188
31
0.0
0
LINE
5
302
100
AcDbEntity
100
AcDbLine
8
3
62
256
370
-1
6
ByLayer
10
-5.51274711634
20
-19.2252339188
30
0.0
11
-5.17638090205
21
-19.3185165258
31
0.0
0
LINE
5
303
100
AcDbEntity
100
AcDbLine
8
3
62
256
370
-1
6
ByLayer
10
-5.17638090205
20
-19.3185165258
30
0.0
11
-4.83843791199
21
-19.4059145255
31
0.0
0
LINE
5
304
100
AcDbEntity
100
AcDbLine
8
3
62
256
370
-1
6
ByLayer
10
-4.83843791199
20
-19.4059145255
30
0.0
11
-4.49902108688
21
-19.4874012957
31
0.0
0
LINE
5
305
100
AcDbEntity
100
AcDbLine
8
3
62
256
370
-1
6
ByLayer
10
-4.49902108688
20
-19.4874012957
30
0.0
11
-4.15823381636
21
-19.5629520147
31
0.0
0
LINE
5
306
100
AcDbEntity
100
AcDbLine
8
3
62
256
370
-1
6
ByLayer
10
-4.15823381636
20
-19.5629520147
30
0.0
11
-3.81617990753
21
-19.632543669
31
0.0
0
LINE
5
307
100
AcDbEntity
100
AcDbLine
8
3
62
256
370
-1
6
ByLayer
10
-3.81617990753
20
-19.632543669
30
0.0
11
-3.47296355334
21
-19.6961550602
31
0.0
0
LINE
5
308
100
AcDbEntity
100
AcDbLine
8
3
62
256
370
-1
6
ByLayer
10
-3.47296355334
20
-19.6961550602
30
0.0
11
-3.1286893008
21
-19.7537668119
31
0.0
0
LINE
5
309
100
AcDbEntity
100
AcDbLine
8
3
62
256
370
-1
6
ByLayer
10
-3.1286893008
20
-19.7537668119
30
0.0
11
-2.7834620192
21
-19.8053613748
31
0.0
0
LINE
5
310
100
AcDbEntity
100
AcDbLine
8
3
62
256
370
-1
6
ByLayer
10
-2.7834620192
20
-19.8053613748
30
0.0
11
-2.4373868681
21
-19.8509230328
31
0.0
0
LINE
5
311
100
AcDbEntity
100
AcDbLine
8
3
62
256
370
-1
6
ByLayer
10
-2.4373868681
20
-19.8509230328
30
0.0
11
-2.09056926535
21
-19.8904379074
31
0.0
0
LINE
5
312
100
AcDbEntity
100
AcDbLine
8
3
62
256
370
-1
6
ByLayer
10
-2.09056926535
20
-19.8904379074
30
0.0
11
-1.74311485495
21
-19.9238939618
31
0.0
0
LINE
5
313
100
AcDbEntity
100
AcDbLine
8
3
62
256
370
-1
6
ByLayer
10
-1.74311485495
20
-19.9238939618
30
0.0
11
-1.39512947488
21
-19.9512810052
31
0.0
0
LINE
5
314
100
AcDbEntity
100
AcDbLine
8
3
62
256
370
-1
6
ByLayer
10
-1.39512947488
20
-19.9512810052
30
0.0
11
-1.04671912486
21
-19.9725906951
31
0.0
0
LINE
5
315
100
AcDbEntity
100
AcDbLine
8
3
62
256
370
-1
6
ByLayer
10
-1.04671912486
20
-19.9725906951
30
0.0
11
-0.69798993405
21
-19.9878165404
31
0.0
0
LINE
5
316
100
AcDbEntity
100
AcDbLine
8
3
62
256
370
-1
6
ByLayer
10
-0.69798993405
20
-19.9878165404
30
0.0
11
-0.349048128746
21
-19.9969539031
31
0.0
0
LINE
5
317
100
AcDbEntity
100
AcDbLine
8
3
62
256
370
-1
6
ByLayer
10
-0.349048128746
20
-19.9969539031
30
0.0
11
-3.67381906147e-15
21
-20.0
31
0.0
0
LINE
5
318
100
AcDbEntity
100
AcDbLine
8
3
62
256
370
-1
6
ByLayer
10
-3.67381906147e-15
20
-20.0
30
0.0
11
0.349048128746
21
-19.9969539031
31
0.0
0
LINE
5
319
100
AcDbEntity
100
AcDbLine
8
3
62
256
370
-1
6
ByLayer
10
0.349048128746
20
-19.9969539031
30
0.0
11
0.69798993405
21
-19.9878165404
31
0.0
0
LINE
5
320
100
AcDbEntity
100
AcDbLine
8
3
62
256
370
-1
6
ByLayer
10
0.69798993405
20
-19.9878165404
30
0.0
11
1.04671912486
21
-19.9725906951
31
0.0
0
LINE
5
321
100
AcDbEntity
100
AcDbLine
8
3
62
256
370
-1
6
ByLayer
10
1.04671912486
20
-19.9725906951
30
0.0
11
1.39512947488
21
-19.9512810052
31
0.0
0
LINE
5
322
100
AcDbEntity
100
AcDbLine
8
3
62
256
370
-1
6
ByLayer
10
1.39512947488
20
-19.9512810052
30
0.0
11
1.74311485495
21
-19.9238939618
31
0.0
0
LINE
5
323
100
AcDbEntity
100
AcDbLine
8
3
62
256
370
-1
6
ByLayer
10
1.74311485495
20
-19.9238939618
30
0.0
11
2.09056926535
21
-19.8904379074
31
0.0
0
LINE
5
324
100
AcDbEntity
100
AcDbLine
8
3
62
256
370
-1
6
ByLayer
10
2.09056926535
20
-19.8904379074
30
0.0
11
2.4373868681
21
-19.8509230328
31
0.0
0
LINE
5
325
100
AcDbEntity
100
AcDbLine
8
3
62
256
370
-1
6
ByLayer
10
2.4373868681
20
-19.8509230328
30
0.0
11
2.7834620192
21
-19.8053613748
31
0.0
0
LINE
5
326
100
AcDbEntity
100
AcDbLine
8
3
62
256
370
-1
6
ByLayer
10
2.7834620192
20
-19.8053613748
30
0.0
11
3.1286893008
21
-19.7537668119
31
0.0
0
LINE
5
327
100
AcDbEntity
100
AcDbLine
8
3
62
256
370
-1
6
ByLayer
10
3.1286893008
20
-19.7537668119
30
0.0
11
3.47296355334
21
-19.6961550602
31
0.0
0
LINE
5
328
100
AcDbEntity
100
AcDbLine
8
3
62
256
370
-1
6
ByLayer
10
3.47296355334
20
-19.6961550602
30
0.0
11
3.81617990753
21
-19.632543669
31
0.0
0
LINE
5
329
100
AcDbEntity
100
AcDbLine
8
3
62
256
370
-1
6
ByLayer
10
3.81617990753
20
-19.632543669
30
0.0
11
4.15823381636
21
-19.5629520147
31
0.0
0
LINE
5
330
100
AcDbEntity
100
AcDbLine
8
3
62
256
370
-1
6
ByLayer
10
4.15823381636
20
-19.5629520147
30
0.0
11
4.49902108688
21
-19.4874012957
31
0.0
0
LINE
5
331
100
AcDbEntity
100
AcDbLine
8
3
62
256
370
-1
6
ByLayer
10
4.49902108688
20
-19.4874012957
30
0.0
11
4.83843791199
21
-19.4059145255
31
0.0
0
LINE
5
332
100
AcDbEntity
100
AcDbLine
8
3
62
256
370
-1
6
ByLayer
10
4.83843791199
20
-19.4059145255
30
0.0
11
5.17638090205
21
-19.3185165258
31
0.0
0
LINE
5
333
100
AcDbEntity
100
AcDbLine
8
3
62
256
370
-1
6
ByLayer
10
5.17638090205
20
-19.3185165258
30
0.0
11
5.51274711634
21
-19.2252339188
31
0.0
0
LINE
5
334
100
AcDbEntity
100
AcDbLine
8
3
62
256
370
-1
6
ByLayer
10
5.51274711634
20
-19.2252339188
30
0.0
11
5.84743409445
21
-19.1260951193
31
0.0
0
LINE
5
335
100
AcDbEntity
100
AcDbLine
8
3
62
256
370
-1
6
ByLayer
10
5.84743409445
20
-19.1260951193
30
0.0
11
6.1803398875
21
-19.0211303259
31
0.0
0
LINE
5
336
100
AcDbEntity
100
AcDbLine
8
3
62
256
370
-1
6
ByLayer
10
6.1803398875
20
-19.0211303259
30
0.0
11
6.51136308914
21
-18.910371512
31
0.0
0
LINE
5
337
100
AcDbEntity
100
AcDbLine
8
3
62
256
370
-1
6
ByLayer
10
6.51136308914
20
-18.910371512
30
0.0
11
6.84040286651
21
-18.7938524157
31
0.0
0
LINE
5
338
100
AcDbEntity
100
AcDbLine
8
3
62
256
370
-1
6
ByLayer
10
6.84040286651
20
-18.7938524157
30
0.0
11
7.16735899091
21
-18.6716085299
31
0.0
0
LINE
5
339
100
AcDbEntity
100
AcDbLine
8
3
62
256
370
-1
6
ByLayer
10
7.16735899091
20
-18.6716085299
30
0.0
11
7.49213186832
21
-18.5436770913
31
0.0
0
LINE
5
340
100
AcDbEntity
100
AcDbLine
8
3
62
256
370
-1
6
ByLayer
10
7.49213186832
20
-18.5436770913
30
0.0
11
7.81462256979
21
-18.410097069
31
0.0
0
LINE
5
341
100
AcDbEntity
100
AcDbLine
8
3
62
256
370
-1
6
ByLayer
10
7.81462256979
20
-18.410097069
30
0.0
11
8.13473286152
21
-18.2709091529
31
0.0
0
LINE
5
342
100
AcDbEntity
100
AcDbLine
8
3
62
256
370
-1
6
ByLayer
10
8.13473286152
20
-18.2709091529
30
0.0
11
8.45236523481
21
-18.1261557407
31
0.0
0
LINE
5
343
100
AcDbEntity
100
AcDbLine
8
3
62
256
370
-1
6
ByLayer
10
8.45236523481
20
-18.1261557407
30
0.0
11
8.76742293578
21
-17.975880926
31
0.0
0
LINE
5
344
100
AcDbEntity
100
AcDbLine
8
3
62
256
370
-1
6
ByLayer
10
8.76742293578
20
-17.975880926
30
0.0
11
9.07980999479
21
-17.8201304838
31
0.0
0
LINE
5
345
100
AcDbEntity
100
AcDbLine
8
3
62
256
370
-1
6
ByLayer
10
9.07980999479
20
-17.8201304838
30
0.0
11
9.38943125572
21
-17.6589518572
31
0.0
0
LINE
5
346
100
AcDbEntity
100
AcDbLine
8
3
62
256
370
-1
6
ByLayer
10
9.38943125572
20
-17.6589518572
30
0.0
11
9.69619240493
21
-17.4923941428
31
0.0
0
LINE
5
347
100
AcDbEntity
100
AcDbLine
8
3
62
256
370
-1
6
ByLayer
10
9.69619240493
20
-17.4923941428
30
0.0
11
10.0
21
-17.3205080757
31
0.0
0
LINE
5
348
100
AcDbEntity
100
AcDbLine
8
3
62
256
370
-1
6
ByLayer
10
10.0
20
-17.3205080757
30
0.0
11
10.3007614982
21
-17.143346014
31
0.0
0
LINE
5
349
100
AcDbEntity
100
AcDbLine
8
3
62
256
370
-1
6
ByLayer
10
10.3007614982
20
-17.143346014
30
0.0
11
10.5983852847
21
-16.9609619231
31
0.0
0
LINE
5
350
100
AcDbEntity
100
AcDbLine
8
3
62
256
370
-1
6
ByLayer
10
10.5983852847
20
-16.9609619231
30
0.0
11
10.8927807003
21
-16.7734113589
31
0.0
0
LINE
5
351
100
AcDbEntity
100
AcDbLine
8
3
62
256
370
-1
6
ByLayer
10
10.8927807003
20
-16.7734113589
30
0.0
11
11.1838580694
21
-16.5807514511
31
0.0
0
LINE
5
352
100
AcDbEntity
100
AcDbLine
8
3
62
256
370
-1
6
ByLayer
10
11.1838580694
20
-16.5807514511
30
0.0
11
11.471528727
21
-16.3830408858
31
0.0
0
LINE
5
353
100
AcDbEntity
100
AcDbLine
8
3
62
256
370
-1
6
ByLayer
10
11.471528727
20
-16.3830408858
30
0.0
11
11.7557050458
21
-16.1803398875
31
0.0
0
LINE
5
354
100
AcDbEntity
100
AcDbLine
8
3
62
256
370
-1
6
ByLayer
10
11.7557050458
20
-16.1803398875
30
0.0
11
12.036300463
21
-15.9727102009
31
0.0
0
LINE
5
355
100
AcDbEntity
100
AcDbLine
8
3
62
256
370
-1
6
ByLayer
10
12.036300463
20
-15.9727102009
30
0.0
11
12.3132295065
21
-15.7602150721
31
0.0
0
LINE
5
356
100
AcDbEntity
100
AcDbLine
8
3
62
256
370
-1
6
ByLayer
10
12.3132295065
20
-15.7602150721
30
0.0
11
12.586407821
21
-15.5429192291
31
0.0
0
LINE
5
357
100
AcDbEntity
100
AcDbLine
8
3
62
256
370
-1
6
ByLayer
10
12.586407821
20
-15.5429192291
30
0.0
11
12.8557521937
21
-15.3208888624
31
0.0
0
LINE
5
358
100
AcDbEntity
100
AcDbLine
8
3
62
256
370
-1
6
ByLayer
10
12.8557521937
20
-15.3208888624
30
0.0
11
13.1211805798
21
-15.0941916045
31
0.0
0
LINE
5
359
100
AcDbEntity
100
AcDbLine
8
3
62
256
370
-1
6
ByLayer
10
13.1211805798
20
-15.0941916045
30
0.0
11
13.3826121272
21
-14.8628965095
31
0.0
0
LINE
5
360
100
AcDbEntity
100
AcDbLine
8
3
62
256
370
-1
6
ByLayer
10
13.3826121272
20
-14.8628965095
30
0.0
11
13.6399672012
21
-14.6270740324
31
0.0
0
LINE
5
361
100
AcDbEntity
100
AcDbLine
8
3
62
256
370
-1
6
ByLayer
10
13.6399672012
20
-14.6270740324
30
0.0
11
13.8931674092
21
-14.3867960068
31
0.0
0
LINE
5
362
100
AcDbEntity
100
AcDbLine
8
3
62
256
370
-1
6
ByLayer
10
13.8931674092
20
-14.3867960068
30
0.0
11
14.1421356237
21
-14.1421356237
31
0.0
0
LINE
5
363
100
AcDbEntity
100
AcDbLine
8
3
62
256
370
-1
6
ByLayer
10
14.1421356237
20
-14.1421356237
30
0.0
11
14.3867960068
21
-13.8931674092
31
0.0
0
LINE
5
364
100
AcDbEntity
100
AcDbLine
8
3
62
256
370
-1
6
ByLayer
10
14.3867960068
20
-13.8931674092
30
0.0
11
14.6270740324
21
-13.6399672012
31
0.0
0
LINE
5
365
100
AcDbEntity
100
AcDbLine
8
3
62
256
370
-1
6
ByLayer
10
14.6270740324
20
-13.6399672012
30
0.0
11
14.8628965095
21
-13.3826121272
31
0.0
0
LINE
5
366
100
AcDbEntity
100
AcDbLine
8
3
62
256
370
-1
6
ByLayer
10
14.8628965095
20
-13.3826121272
30
0.0
11
15.0941916045
21
-13.1211805798
31
0.0
0
LINE
5
367
100
AcDbEntity
100
AcDbLine
8
3
62
256
370
-1
6
ByLayer
10
15.0941916045
20
-13.1211805798
30
0.0
11
15.3208888624
21
-12.8557521937
31
0.0
0
LINE
5
368
100
AcDbEntity
100
AcDbLine
8
3
62
256
370
-1
6
ByLayer
10
15.3208888624
20
-12.8557521937
30
0.0
11
15.5429192291
21
-12.586407821
31
0.0
0
LINE
5
369
100
AcDbEntity
100
AcDbLine
8
3
62
256
370
-1
6
ByLayer
10
15.5429192291
20
-12.586407821
30
0.0
11
15.7602150721
21
-12.3132295065
31
0.0
0
LINE
5
370
100
AcDbEntity
100
AcDbLine
8
3
62
256
370
-1
6
ByLayer
10
15.7602150721
20
-12.3132295065
30
0.0
11
15.9727102009
21
-12.036300463
31
0.0
0
LINE
5
371
100
AcDbEntity
100
AcDbLine
8
3
62
256
370
-1
6
ByLayer
10
15.9727102009
20
-12.036300463
30
0.0
11
16.1803398875
21
-11.7557050458
31
0.0
0
LINE
5
372
100
AcDbEntity
100
AcDbLine
8
3
62
256
370
-1
6
ByLayer
10
16.1803398875
20
-11.7557050458
30
0.0
11
16.3830408858
21
-11.471528727
31
0.0
0
LINE
5
373
100
AcDbEntity
100
AcDbLine
8
3
62
256
370
-1
6
ByLayer
10
16.3830408858
20
-11.471528727
30
0.0
11
16.5807514511
21
-11.1838580694
31
0.0
0
LINE
5
374
100
AcDbEntity
100
AcDbLine
8
3
62
256
370
-1
6
ByLayer
10
16.5807514511
20
-11.1838580694
30
0.0
11
16.7734113589
21
-10.8927807003
31
0.0
0
LINE
5
375
100
AcDbEntity
100
AcDbLine
8
3
62
256
370
-1
6
ByLayer
10
16.7734113589
20
-10.8927807003
30
0.0
11
16.9609619231
21
-10.5983852847
31
0.0
0
LINE
5
376
100
AcDbEntity
100
AcDbLine
8
3
62
256
370
-1
6
ByLayer
10
16.9609619231
20
-10.5983852847
30
0.0
11
17.143346014
21
-10.3007614982
31
0.0
0
LINE
5
377
100
AcDbEntity
100
AcDbLine
8
3
62
256
370
-1
6
ByLayer
10
17.143346014
20
-10.3007614982
30
0.0
11
17.3205080757
21
-10.0
31
0.0
0
LINE
5
378
100
AcDbEntity
100
AcDbLine
8
3
62
256
370
-1
6
ByLayer
10
17.3205080757
20
-10.0
30
0.0
11
17.4923941428
21
-9.69619240493
31
0.0
0
LINE
5
379
100
AcDbEntity
100
AcDbLine
8
3
62
256
370
-1
6
ByLayer
10
17.4923941428
20
-9.69619240493
30
0.0
11
17.6589518572
21
-9.38943125572
31
0.0
0
LINE
5
380
100
AcDbEntity
100
AcDbLine
8
3
62
256
370
-1
6
ByLayer
10
17.6589518572
20
-9.38943125572
30
0.0
11
17.8201304838
21
-9.07980999479
31
0.0
0
LINE
5
381
100
AcDbEntity
100
AcDbLine
8
3
62
256
370
-1
6
ByLayer
10
17.8201304838
20
-9.07980999479
30
0.0
11
17.975880926
21
-8.76742293578
31
0.0
0
LINE
5
382
100
AcDbEntity
100
AcDbLine
8
3
62
256
370
-1
6
ByLayer
10
17.975880926
20
-8.76742293578
30
0.0
11
18.1261557407
21
-8.45236523481
31
0.0
0
LINE
5
383
100
AcDbEntity
100
AcDbLine
8
3
62
256
370
-1
6
ByLayer
10
18.1261557407
20
-8.45236523481
30
0.0
11
18.2709091529
21
-8.13473286152
31
0.0
0
LINE
5
384
100
AcDbEntity
100
AcDbLine
8
3
62
256
370
-1
6
ByLayer
10
18.2709091529
20
-8.13473286152
30
0.0
11
18.410097069
21
-7.81462256979
31
0.0
0
LINE
5
385
100
AcDbEntity
100
AcDbLine
8
3
62
256
370
-1
6
ByLayer
10
18.410097069
20
-7.81462256979
30
0.0
11
18.5436770913
21
-7.49213186832
31
0.0
0
LINE
5
386
100
AcDbEntity
100
AcDbLine
8
3
62
256
370
-1
6
ByLayer
10
18.5436770913
20
-7.49213186832
30
0.0
11
18.6716085299
21
-7.16735899091
31
0.0
0
LINE
5
387
100
AcDbEntity
100
AcDbLine
8
3
62
256
370
-1
6
ByLayer
10
18.6716085299
20
-7.16735899091
30
0.0
11
18.7938524157
21
-6.84040286651
31
0.0
0
LINE
5
388
100
AcDbEntity
100
AcDbLine
8
3
62
256
370
-1
6
ByLayer
10
18.7938524157
20
-6.84040286651
30
0.0
11
18.910371512
21
-6.51136308914
31
0.0
0
LINE
5
389
100
AcDbEntity
100
AcDbLine
8
3
62
256
370
-1
6
ByLayer
10
18.910371512
20
-6.51136308914
30
0.0
11
19.0211303259
21
-6.1803398875
31
0.0
0
LINE
5
390
100
AcDbEntity
100
AcDbLine
8
3
62
256
370
-1
6
ByLayer
10
19.0211303259
20
-6.1803398875
30
0.0
11
19.1260951193
21
-5.84743409445
31
0.0
0
LINE
5
391
100
AcDbEntity
100
AcDbLine
8
3
62
256
370
-1
6
ByLayer
10
19.1260951193
20
-5.84743409445
30
0.0
11
19.2252339188
21
-5.51274711634
31
0.0
0
LINE
5
392
100
AcDbEntity
100
AcDbLine
8
3
62
256
370
-1
6
ByLayer
10
19.2252339188
20
-5.51274711634
30
0.0
11
19.3185165258
21
-5.17638090205
31
0.0
0
LINE
5
393
100
AcDbEntity
100
AcDbLine
8
3
62
256
370
-1
6
ByLayer
10
19.3185165258
20
-5.17638090205
30
0.0
11
19.4059145255
21
-4.83843791199
31
0.0
0
LINE
5
394
100
AcDbEntity
100
AcDbLine
8
3
62
256
370
-1
6
ByLayer
10
19.4059145255
20
-4.83843791199
30
0.0
11
19.4874012957
21
-4.49902108688
31
0.0
0
LINE
5
395
100
AcDbEntity
100
AcDbLine
8
3
62
256
370
-1
6
ByLayer
10
19.4874012957
20
-4.49902108688
30
0.0
11
19.5629520147
21
-4.15823381636
31
0.0
0
LINE
5
396
100
AcDbEntity
100
AcDbLine
8
3
62
256
370
-1
6
ByLayer
10
19.5629520147
20
-4.15823381636
30
0.0
11
19.632543669
21
-3.81617990753
31
0.0
0
LINE
5
397
100
AcDbEntity
100
AcDbLine
8
3
62
256
370
-1
6
ByLayer
10
19.632543669
20
-3.81617990753
30
0.0
11
19.6961550602
21
-3.47296355334
31
0.0
0
LINE
5
398
100
AcDbEntity
100
AcDbLine
8
3
62
256
370
-1
6
ByLayer
10
19.6961550602
20
-3.47296355334
30
0.0
11
19.7537668119
21
-3.1286893008
31
0.0
0
LINE
5
399
100
AcDbEntity
100
AcDbLine
8
3
62
256
370
-1
6
ByLayer
10
19.7537668119
20
-3.1286893008
30
0.0
11
19.8053613748
21
-2.7834620192
31
0.0
0
LINE
5
400
100
AcDbEntity
100
AcDbLine
8
3
62
256
370
-1
6
ByLayer
10
19.8053613748
20
-2.7834620192
30
0.0
11
19.8509230328
21
-2.4373868681
31
0.0
0
LINE
5
401
100
AcDbEntity
100
AcDbLine
8
3
62
256
370
-1
6
ByLayer
10
19.8509230328
20
-2.4373868681
30
0.0
11
19.8904379074
21
-2.09056926535
31
0.0
0
LINE
5
402
100
AcDbEntity
100
AcDbLine
8
3
62
256
370
-1
6
ByLayer
10
19.8904379074
20
-2.09056926535
30
0.0
11
19.9238939618
21
-1.74311485495
31
0.0
0
LINE
5
403
100
AcDbEntity
100
AcDbLine
8
3
62
256
370
-1
6
ByLayer
10
19.9238939618
20
-1.74311485495
30
0.0
11
19.9512810052
21
-1.39512947488
31
0.0
0
LINE
5
404
100
AcDbEntity
100
AcDbLine
8
3
62
256
370
-1
6
ByLayer
10
19.9512810052
20
-1.39512947488
30
0.0
11
19.9725906951
21
-1.04671912486
31
0.0
0
LINE
5
405
100
AcDbEntity
100
AcDbLine
8
3
62
256
370
-1
6
ByLayer
10
19.9725906951
20
-1.04671912486
30
0.0
11
19.9878165404
21
-0.69798993405
31
0.0
0
LINE
5
406
100
AcDbEntity
100
AcDbLine
8
3
62
256
370
-1
6
ByLayer
10
19.9878165404
20
-0.69798993405
30
0.0
11
19.9969539031
21
-0.349048128746
31
0.0
0
MTEXT
5
407
100
AcDbEntity
100
AcDbMText
8
3
62
256
370
-1
6
ByLayer
10
0.0
20
-25.0
30
0.0
40
3
41
100.0
71
8
72
0
1
Circle with radius  20 
7
normallatin1
50
0.0
73
1
44
1.0
0
ENDSEC
  0
SECTION
  2
OBJECTS
  0
DICTIONARY
  5
C
100
AcDbDictionary
280
0
281
1
  3
ACAD_GROUP
350
D
  3
ACAD_LAYOUT
350
1A
  3
ACAD_MLINESTYLE
350
17
  3
ACAD_PLOTSETTINGS
350
19
  3
ACAD_PLOTSTYLENAME
350
E
  3
AcDbVariableDictionary
350
48
  0
DICTIONARY
  5
D
100
AcDbDictionary
280
0
281
1
  0
ACDBDICTIONARYWDFLT
  5
E
100
AcDbDictionary
281
1
  3
Normal
350
F
100
AcDbDictionaryWithDefault
340
F
  0
ACDBPLACEHOLDER
  5
F
  0
DICTIONARY
  5
17
100
AcDbDictionary
280
0
281
1
  3
Standard
350
18
  0
MLINESTYLE
  5
18
100
AcDbMlineStyle
  2
STANDARD
 70
0
  3

 62
256
 51
90.0
 52
90.0
 71
2
 49
0.5
 62
256
  6
BYLAYER
 49
-0.5
 62
256
  6
BYLAYER
  0
DICTIONARY
  5
19
100
AcDbDictionary
280
0
281
1
  0
DICTIONARY
  5
1A
100
AcDbDictionary
281
1
  3
Layout1
350
1E
  3
Layout2
350
26
  3
Model
350
22
  0
LAYOUT
  5
1E
100
AcDbPlotSettings
  1

  2
C:\Program Files\AutoCAD 2002\plotters\DWF ePlot (optimized for plotting).pc3
  4

  6

 40
0.0
 41
0.0
 42
0.0
 43
0.0
 44
0.0
 45
0.0
 46
0.0
 47
0.0
 48
0.0
 49
0.0
140
0.0
141
0.0
142
1.0
143
1.0
 70
688
 72
0
 73
0
 74
5
  7

 75
16
147
1.0
148
0.0
149
0.0
100
AcDbLayout
  1
Layout1
 70
1
 71
1
 10
0.0
 20
0.0
 11
420.0
 21
297.0
 12
0.0
 22
0.0
 32
0.0
 14
100000000000000000000.0
 24
100000000000000000000.0
 34
100000000000000000000.0
 15
-100000000000000000000.0
 25
-100000000000000000000.0
 35
-100000000000000000000.0
146
0.0
 13
0.0
 23
0.0
 33
0.0
 16
1.0
 26
0.0
 36
0.0
 17
0.0
 27
1.0
 37
0.0
 76
0
330
1B
  0
LAYOUT
  5
22
100
AcDbPlotSettings
  1

  2
C:\Program Files\AutoCAD 2002\plotters\DWF ePlot (optimized for plotting).pc3
  4

  6

 40
0.0
 41
0.0
 42
0.0
 43
0.0
 44
0.0
 45
0.0
 46
0.0
 47
0.0
 48
0.0
 49
0.0
140
0.0
141
0.0
142
1.0
143
1.0
 70
1712
 72
0
 73
0
 74
0
  7

 75
0
147
1.0
148
0.0
149
0.0
100
AcDbLayout
  1
Model
 70
1
 71
0
 10
0.0
 20
0.0
 11
12.0
 21
9.0
 12
0.0
 22
0.0
 32
0.0
 14
0.0
 24
0.0
 34
0.0
 15
0.0
 25
0.0
 35
0.0
146
0.0
 13
0.0
 23
0.0
 33
0.0
 16
1.0
 26
0.0
 36
0.0
 17
0.0
 27
1.0
 37
0.0
 76
0
330
1F
  0
LAYOUT
  5
26
100
AcDbPlotSettings
  1

  2
C:\Program Files\AutoCAD 2002\plotters\DWF ePlot (optimized for plotting).pc3
  4

  6

 40
0.0
 41
0.0
 42
0.0
 43
0.0
 44
0.0
 45
0.0
 46
0.0
 47
0.0
 48
0.0
 49
0.0
140
0.0
141
0.0
142
1.0
143
1.0
 70
688
 72
0
 73
0
 74
5
  7

 75
16
147
1.0
148
0.0
149
0.0
100
AcDbLayout
  1
Layout2
 70
1
 71
2
 10
0.0
 20
0.0
 11
12.0
 21
9.0
 12
0.0
 22
0.0
 32
0.0
 14
0.0
 24
0.0
 34
0.0
 15
0.0
 25
0.0
 35
0.0
146
0.0
 13
0.0
 23
0.0
 33
0.0
 16
1.0
 26
0.0
 36
0.0
 17
0.0
 27
1.0
 37
0.0
 76
0
330
23
  0
DICTIONARY
  5
48
100
AcDbDictionary
281
1
  3
DIMASSOC
350
4A
  3
HIDETEXT
350
49
  0
DICTIONARYVAR
  5
49
100
DictionaryVariables
280
0
  1
2
  0
DICTIONARYVAR
  5
4A
100
DictionaryVariables
280
0
  1
1
  0
ENDSEC
  0
EOF
