999
dxflib 2.0.4.8
  0
SECTION
  2
HEADER
  9
$ACADVER
  1
AC1015
  9
$HANDSEED
  5
FFFF
  9
$DIMASZ
 40
2.5
  9
$DIMGAP
 40
0.625
  9
$DIMEXO
 40
0.625
  9
$INSUNITS
 70
4
  9
$DIMTXT
 40
2.5
  9
$PLIMMAX
 10
210.0
 20
297.0
  9
$PLIMMIN
 10
0.0
 20
0.0
  9
$DIMEXE
 40
1.25
  0
ENDSEC
  0
SECTION
  2
TABLES
  0
TABLE
  2
VPORT
  5
8
100
AcDbSymbolTable
 70
1
  0
VPORT
  5
30
100
AcDbSymbolTableRecord
100
AcDbViewportTableRecord
  2
*Active
 70
0
 10
0.0
 20
0.0
 11
1.0
 21
1.0
 12
286.3055555555554861
 22
148.5
 13
0.0
 23
0.0
 14
10.0
 24
10.0
 15
10.0
 25
10.0
 16
0.0
 26
0.0
 36
1.0
 17
0.0
 27
0.0
 37
0.0
 40
297.0
 41
1.92798353909465
 42
50.0
 43
0.0
 44
0.0
 50
0.0
 51
0.0
 71
0
 72
100
 73
1
 74
3
 75
1
 76
1
 77
0
 78
0
281
0
 65
1
110
0.0
120
0.0
130
0.0
111
1.0
121
0.0
131
0.0
112
0.0
122
1.0
132
0.0
 79
0
146
0.0
  0
ENDTAB
  0
TABLE
  2
LTYPE
  5
5
100
AcDbSymbolTable
 70
21
  0
LTYPE
  5
14
100
AcDbSymbolTableRecord
100
AcDbLinetypeTableRecord
  2
ByBlock
 70
0
  3

 72
65
 73
0
 40
0.0
  0
LTYPE
  5
15
100
AcDbSymbolTableRecord
100
AcDbLinetypeTableRecord
  2
ByLayer
 70
0
  3

 72
65
 73
0
 40
0.0
  0
LTYPE
  5
16
100
AcDbSymbolTableRecord
100
AcDbLinetypeTableRecord
  2
CONTINUOUS
 70
0
  3
Solid line
 72
65
 73
0
 40
0.0
  0
LTYPE
  5
31
100
AcDbSymbolTableRecord
100
AcDbLinetypeTableRecord
  2
DOT
 70
0
  3
Dot . . . . . . . . . . . . . . . . . . . . . .
 72
65
 73
2
 40
6.3499999999999996
 49
0.0
 74
0
 49
-6.3499999999999996
 74
0
  0
LTYPE
  5
32
100
AcDbSymbolTableRecord
100
AcDbLinetypeTableRecord
  2
DOT2
 70
0
  3
Dot (.5x) .....................................
 72
65
 73
2
 40
3.1749999999999998
 49
0.0
 74
0
 49
-3.1749999999999998
 74
0
  0
LTYPE
  5
33
100
AcDbSymbolTableRecord
100
AcDbLinetypeTableRecord
  2
DOTX2
 70
0
  3
Dot (2x) .  .  .  .  .  .  .  .  .  .  .  .  .
 72
65
 73
2
 40
12.6999999999999993
 49
0.0
 74
0
 49
-12.6999999999999993
 74
0
  0
LTYPE
  5
34
100
AcDbSymbolTableRecord
100
AcDbLinetypeTableRecord
  2
DASHED
 70
0
  3
Dashed __ __ __ __ __ __ __ __ __ __ __ __ __ _
 72
65
 73
2
 40
19.0500000000000007
 49
12.6999999999999993
 74
0
 49
-6.3499999999999996
 74
0
  0
LTYPE
  5
35
100
AcDbSymbolTableRecord
100
AcDbLinetypeTableRecord
  2
DASHED2
 70
0
  3
Dashed (.5x) _ _ _ _ _ _ _ _ _ _ _ _ _ _ _ _ _
 72
65
 73
2
 40
9.5250000000000004
 49
6.3499999999999996
 74
0
 49
-3.1749999999999998
 74
0
  0
LTYPE
  5
36
100
AcDbSymbolTableRecord
100
AcDbLinetypeTableRecord
  2
DASHEDX2
 70
0
  3
Dashed (2x) ____  ____  ____  ____  ____  ___
 72
65
 73
2
 40
38.1000000000000014
 49
25.3999999999999986
 74
0
 49
-12.6999999999999993
 74
0
  0
LTYPE
  5
37
100
AcDbSymbolTableRecord
100
AcDbLinetypeTableRecord
  2
DASHDOT
 70
0
  3
Dash dot __ . __ . __ . __ . __ . __ . __ . __
 72
65
 73
4
 40
25.3999999999999986
 49
12.6999999999999993
 74
0
 49
-6.3499999999999996
 74
0
 49
0.0
 74
0
 49
-6.3499999999999996
 74
0
  0
LTYPE
  5
38
100
AcDbSymbolTableRecord
100
AcDbLinetypeTableRecord
  2
DASHDOT2
 70
0
  3
Dash dot (.5x) _._._._._._._._._._._._._._._.
 72
65
 73
4
 40
12.6999999999999993
 49
6.3499999999999996
 74
0
 49
-3.1749999999999998
 74
0
 49
0.0
 74
0
 49
-3.1749999999999998
 74
0
  0
LTYPE
  5
39
100
AcDbSymbolTableRecord
100
AcDbLinetypeTableRecord
  2
DASHDOTX2
 70
0
  3
Dash dot (2x) ____  .  ____  .  ____  .  ___
 72
65
 73
4
 40
50.7999999999999972
 49
25.3999999999999986
 74
0
 49
-12.6999999999999993
 74
0
 49
0.0
 74
0
 49
-12.6999999999999993
 74
0
  0
LTYPE
  5
3A
100
AcDbSymbolTableRecord
100
AcDbLinetypeTableRecord
  2
DIVIDE
 70
0
  3
Divide ____ . . ____ . . ____ . . ____ . . ____
 72
65
 73
6
 40
31.75
 49
12.6999999999999993
 74
0
 49
-6.3499999999999996
 74
0
 49
0.0
 74
0
 49
-6.3499999999999996
 74
0
 49
0.0
 74
0
 49
-6.3499999999999996
 74
0
  0
LTYPE
  5
3B
100
AcDbSymbolTableRecord
100
AcDbLinetypeTableRecord
  2
DIVIDE2
 70
0
  3
Divide (.5x) __..__..__..__..__..__..__..__.._
 72
65
 73
6
 40
15.875
 49
6.3499999999999996
 74
0
 49
-3.1749999999999998
 74
0
 49
0.0
 74
0
 49
-3.1749999999999998
 74
0
 49
0.0
 74
0
 49
-3.1749999999999998
 74
0
  0
LTYPE
  5
3C
100
AcDbSymbolTableRecord
100
AcDbLinetypeTableRecord
  2
DIVIDEX2
 70
0
  3
Divide (2x) ________  .  .  ________  .  .  _
 72
65
 73
6
 40
63.5
 49
25.3999999999999986
 74
0
 49
-12.6999999999999993
 74
0
 49
0.0
 74
0
 49
-12.6999999999999993
 74
0
 49
0.0
 74
0
 49
-12.6999999999999993
 74
0
  0
LTYPE
  5
3D
100
AcDbSymbolTableRecord
100
AcDbLinetypeTableRecord
  2
CENTER
 70
0
  3
Center ____ _ ____ _ ____ _ ____ _ ____ _ ____
 72
65
 73
4
 40
50.7999999999999972
 49
31.75
 74
0
 49
-6.3499999999999996
 74
0
 49
6.3499999999999996
 74
0
 49
-6.3499999999999996
 74
0
  0
LTYPE
  5
3E
100
AcDbSymbolTableRecord
100
AcDbLinetypeTableRecord
  2
CENTER2
 70
0
  3
Center (.5x) ___ _ ___ _ ___ _ ___ _ ___ _ ___
 72
65
 73
4
 40
28.5749999999999993
 49
19.0500000000000007
 74
0
 49
-3.1749999999999998
 74
0
 49
3.1749999999999998
 74
0
 49
-3.1749999999999998
 74
0
  0
LTYPE
  5
3F
100
AcDbSymbolTableRecord
100
AcDbLinetypeTableRecord
  2
CENTERX2
 70
0
  3
Center (2x) ________  __  ________  __  _____
 72
65
 73
4
 40
101.5999999999999943
 49
63.5
 74
0
 49
-12.6999999999999993
 74
0
 49
12.6999999999999993
 74
0
 49
-12.6999999999999993
 74
0
  0
LTYPE
  5
40
100
AcDbSymbolTableRecord
100
AcDbLinetypeTableRecord
  2
BORDER
 70
0
  3
Border __ __ . __ __ . __ __ . __ __ . __ __ .
 72
65
 73
6
 40
44.4500000000000028
 49
12.6999999999999993
 74
0
 49
-6.3499999999999996
 74
0
 49
12.6999999999999993
 74
0
 49
-6.3499999999999996
 74
0
 49
0.0
 74
0
 49
-6.3499999999999996
 74
0
  0
LTYPE
  5
41
100
AcDbSymbolTableRecord
100
AcDbLinetypeTableRecord
  2
BORDER2
 70
0
  3
Border (.5x) __.__.__.__.__.__.__.__.__.__.__.
 72
65
 73
6
 40
22.2250000000000014
 49
6.3499999999999996
 74
0
 49
-3.1749999999999998
 74
0
 49
6.3499999999999996
 74
0
 49
-3.1749999999999998
 74
0
 49
0.0
 74
0
 49
-3.1749999999999998
 74
0
  0
LTYPE
  5
42
100
AcDbSymbolTableRecord
100
AcDbLinetypeTableRecord
  2
BORDERX2
 70
0
  3
Border (2x) ____  ____  .  ____  ____  .  ___
 72
65
 73
6
 40
88.9000000000000057
 49
25.3999999999999986
 74
0
 49
-12.6999999999999993
 74
0
 49
25.3999999999999986
 74
0
 49
-12.6999999999999993
 74
0
 49
0.0
 74
0
 49
-12.6999999999999993
 74
0
  0
ENDTAB
  0
TABLE
  2
LAYER
  5
2
100
AcDbSymbolTable
 70
6
  0
LAYER
  5
10
100
AcDbSymbolTableRecord
100
AcDbLayerTableRecord
  2
0
 70
0
 62
7
  6
CONTINUOUS
370
0
390
F
  0
LAYER
  5
43
100
AcDbSymbolTableRecord
100
AcDbLayerTableRecord
  2
1
 70
0
 62
6
  6
CONTINUOUS
370
0
390
F
  0
LAYER
  5
44
100
AcDbSymbolTableRecord
100
AcDbLayerTableRecord
  2
2
 70
0
 62
2
  6
CONTINUOUS
370
0
390
F
  0
LAYER
  5
45
100
AcDbSymbolTableRecord
100
AcDbLayerTableRecord
  2
3
 70
0
 62
3
  6
CONTINUOUS
370
0
390
F
  0
LAYER
  5
46
100
AcDbSymbolTableRecord
100
AcDbLayerTableRecord
  2
4
 70
0
 62
1
  6
CONTINUOUS
370
0
390
F
  0
LAYER
  5
47
100
AcDbSymbolTableRecord
100
AcDbLayerTableRecord
  2
5
 70
0
 62
5
  6
CONTINUOUS
370
0
390
F
  0
ENDTAB
  0
TABLE
  2
STYLE
  5
3
100
AcDbSymbolTable
 70
1
  0
STYLE
  5
11
100
AcDbSymbolTableRecord
100
AcDbTextStyleTableRecord
  2
Standard
 70
0
 40
0.0
 41
0.75
 50
0.0
 71
0
 42
2.5
  3
txt
  4

  0
ENDTAB
  0
TABLE
  2
VIEW
  5
6
100
AcDbSymbolTable
 70
0
  0
ENDTAB
  0
TABLE
  2
UCS
  5
7
100
AcDbSymbolTable
 70
0
  0
ENDTAB
  0
TABLE
  2
APPID
  5
9
100
AcDbSymbolTable
 70
1
  0
APPID
  5
12
100
AcDbSymbolTableRecord
100
AcDbRegAppTableRecord
  2
ACAD
 70
0
  0
ENDTAB
  0
TABLE
  2
DIMSTYLE
  5
A
100
AcDbSymbolTable
 70
1
100
AcDbDimStyleTable
 71
0
  0
DIMSTYLE
105
27
100
AcDbSymbolTableRecord
100
AcDbDimStyleTableRecord
  2
Standard
 41
2.5
 42
0.625
 43
3.75
 44
1.25
 70
0
 73
0
 74
0
 77
1
 78
8
140
2.5
141
2.5
143
0.03937007874016
147
0.625
171
3
172
1
271
2
272
2
274
3
278
44
283
0
284
8
340
11
  0
ENDTAB
  0
TABLE
  2
BLOCK_RECORD
  5
1
100
AcDbSymbolTable
 70
1
  0
BLOCK_RECORD
  5
1F
100
AcDbSymbolTableRecord
100
AcDbBlockTableRecord
  2
*Model_Space
340
22
  0
BLOCK_RECORD
  5
1B
100
AcDbSymbolTableRecord
100
AcDbBlockTableRecord
  2
*Paper_Space
340
1E
  0
BLOCK_RECORD
  5
23
100
AcDbSymbolTableRecord
100
AcDbBlockTableRecord
  2
*Paper_Space0
340
26
  0
ENDTAB
  0
ENDSEC
  0
SECTION
  2
BLOCKS
  0
BLOCK
  5
20
100
AcDbEntity
  8
0
100
AcDbBlockBegin
  2
*Model_Space
 70
0
 10
0.0
 20
0.0
 30
0.0
  3
*Model_Space
  1

  0
ENDBLK
  5
21
100
AcDbEntity
  8
0
100
AcDbBlockEnd
  0
BLOCK
  5
1C
100
AcDbEntity
 67
1
  8
0
100
AcDbBlockBegin
  2
*Paper_Space
 70
0
 10
0.0
 20
0.0
 30
0.0
  3
*Paper_Space
  1

  0
ENDBLK
  5
1D
100
AcDbEntity
 67
1
  8
0
100
AcDbBlockEnd
  0
BLOCK
  5
24
100
AcDbEntity
  8
0
100
AcDbBlockBegin
  2
*Paper_Space0
 70
0
 10
0.0
 20
0.0
 30
0.0
  3
*Paper_Space0
  1

  0
ENDBLK
  5
25
100
AcDbEntity
  8
0
100
AcDbBlockEnd
  0
ENDSEC
  0
SECTION
  2
ENTITIES
  0
LINE
5
48
100
AcDbEntity
100
AcDbLine
8
3
62
256
370
-1
6
ByLayer
10
20.0
20
0.0
30
0.0
11
20.0060912659
21
0.000106323441321
31
0.0
0
LINE
5
49
100
AcDbEntity
100
AcDbLine
8
3
62
256
370
-1
6
ByLayer
10
20.0060912659
20
0.000106323441321
30
0.0
11
20.0243520756
21
0.000850393217533
31
0.0
0
LINE
5
50
100
AcDbEntity
100
AcDbLine
8
3
62
256
370
-1
6
ByLayer
10
20.0243520756
20
0.000850393217533
30
0.0
11
20.0547434828
21
0.00286898436468
31
0.0
0
LINE
5
51
100
AcDbEntity
100
AcDbLine
8
3
62
256
370
-1
6
ByLayer
10
20.0547434828
20
0.00286898436468
30
0.0
11
20.0972006356
21
0.0067969305637
31
0.0
0
LINE
5
52
100
AcDbEntity
100
AcDbLine
8
3
62
256
370
-1
6
ByLayer
10
20.0972006356
20
0.0067969305637
30
0.0
11
20.1516328634
21
0.0132661565677
31
0.0
0
LINE
5
53
100
AcDbEntity
100
AcDbLine
8
3
62
256
370
-1
6
ByLayer
10
20.1516328634
20
0.0132661565677
30
0.0
11
20.2179238001
21
0.022904714351
31
0.0
0
LINE
5
54
100
AcDbEntity
100
AcDbLine
8
3
62
256
370
-1
6
ByLayer
10
20.2179238001
20
0.022904714351
30
0.0
11
20.2959315401
21
0.0363358242125
31
0.0
0
LINE
5
55
100
AcDbEntity
100
AcDbLine
8
3
62
256
370
-1
6
ByLayer
10
20.2959315401
20
0.0363358242125
30
0.0
11
20.3854888309
21
0.0541769220626
31
0.0
0
LINE
5
56
100
AcDbEntity
100
AcDbLine
8
3
62
256
370
-1
6
ByLayer
10
20.3854888309
20
0.0541769220626
30
0.0
11
20.4864032979
21
0.0770387141103
31
0.0
0
LINE
5
57
100
AcDbEntity
100
AcDbLine
8
3
62
256
370
-1
6
ByLayer
10
20.4864032979
20
0.0770387141103
30
0.0
11
20.5984577048
21
0.105524240164
31
0.0
0
LINE
5
58
100
AcDbEntity
100
AcDbLine
8
3
62
256
370
-1
6
ByLayer
10
20.5984577048
20
0.105524240164
30
0.0
11
20.7214102466
21
0.140227946744
31
0.0
0
LINE
5
59
100
AcDbEntity
100
AcDbLine
8
3
62
256
370
-1
6
ByLayer
10
20.7214102466
20
0.140227946744
30
0.0
11
20.8549948765
21
0.181734771194
31
0.0
0
LINE
5
60
100
AcDbEntity
100
AcDbLine
8
3
62
256
370
-1
6
ByLayer
10
20.8549948765
20
0.181734771194
30
0.0
11
20.9989216654
21
0.230619237973
31
0.0
0
LINE
5
61
100
AcDbEntity
100
AcDbLine
8
3
62
256
370
-1
6
ByLayer
10
20.9989216654
20
0.230619237973
30
0.0
11
21.1528771939
21
0.287444568269
31
0.0
0
LINE
5
62
100
AcDbEntity
100
AcDbLine
8
3
62
256
370
-1
6
ByLayer
10
21.1528771939
20
0.287444568269
30
0.0
11
21.3165249759
21
0.352761804101
31
0.0
0
LINE
5
63
100
AcDbEntity
100
AcDbLine
8
3
62
256
370
-1
6
ByLayer
10
21.3165249759
20
0.352761804101
30
0.0
11
21.4895059144
21
0.427108948016
31
0.0
0
LINE
5
64
100
AcDbEntity
100
AcDbLine
8
3
62
256
370
-1
6
ByLayer
10
21.4895059144
20
0.427108948016
30
0.0
11
21.6714387874
21
0.511010119495
31
0.0
0
LINE
5
65
100
AcDbEntity
100
AcDbLine
8
3
62
256
370
-1
6
ByLayer
10
21.6714387874
20
0.511010119495
30
0.0
11
21.8619207643
21
0.604974729148
31
0.0
0
LINE
5
66
100
AcDbEntity
100
AcDbLine
8
3
62
256
370
-1
6
ByLayer
10
21.8619207643
20
0.604974729148
30
0.0
11
22.0605279518
21
0.709496671773
31
0.0
0
LINE
5
67
100
AcDbEntity
100
AcDbLine
8
3
62
256
370
-1
6
ByLayer
10
22.0605279518
20
0.709496671773
30
0.0
11
22.2668159691
21
0.825053539296
31
0.0
0
LINE
5
68
100
AcDbEntity
100
AcDbLine
8
3
62
256
370
-1
6
ByLayer
10
22.2668159691
20
0.825053539296
30
0.0
11
22.4803205503
21
0.952105854635
31
0.0
0
LINE
5
69
100
AcDbEntity
100
AcDbLine
8
3
62
256
370
-1
6
ByLayer
10
22.4803205503
20
0.952105854635
30
0.0
11
22.7005581759
21
1.09109632746
31
0.0
0
LINE
5
70
100
AcDbEntity
100
AcDbLine
8
3
62
256
370
-1
6
ByLayer
10
22.7005581759
20
1.09109632746
30
0.0
11
22.9270267289
21
1.2424491328
31
0.0
0
LINE
5
71
100
AcDbEntity
100
AcDbLine
8
3
62
256
370
-1
6
ByLayer
10
22.9270267289
20
1.2424491328
30
0.0
11
23.1592061785
21
1.40656921348
31
0.0
0
LINE
5
72
100
AcDbEntity
100
AcDbLine
8
3
62
256
370
-1
6
ByLayer
10
23.1592061785
20
1.40656921348
30
0.0
11
23.3965592877
21
1.58384160725
31
0.0
0
LINE
5
73
100
AcDbEntity
100
AcDbLine
8
3
62
256
370
-1
6
ByLayer
10
23.3965592877
20
1.58384160725
30
0.0
11
23.6385323455
21
1.77463079943
31
0.0
0
LINE
5
74
100
AcDbEntity
100
AcDbLine
8
3
62
256
370
-1
6
ByLayer
10
23.6385323455
20
1.77463079943
30
0.0
11
23.8845559217
21
1.97928010208
31
0.0
0
LINE
5
75
100
AcDbEntity
100
AcDbLine
8
3
62
256
370
-1
6
ByLayer
10
23.8845559217
20
1.97928010208
30
0.0
11
24.1340456449
21
2.19811106033
31
0.0
0
LINE
5
76
100
AcDbEntity
100
AcDbLine
8
3
62
256
370
-1
6
ByLayer
10
24.1340456449
20
2.19811106033
30
0.0
11
24.3864030009
21
2.43142288672
31
0.0
0
LINE
5
77
100
AcDbEntity
100
AcDbLine
8
3
62
256
370
-1
6
ByLayer
10
24.3864030009
20
2.43142288672
30
0.0
11
24.6410161514
21
2.67949192431
31
0.0
0
LINE
5
78
100
AcDbEntity
100
AcDbLine
8
3
62
256
370
-1
6
ByLayer
10
24.6410161514
20
2.67949192431
30
0.0
11
24.8972607724
21
2.94257113922
31
0.0
0
LINE
5
79
100
AcDbEntity
100
AcDbLine
8
3
62
256
370
-1
6
ByLayer
10
24.8972607724
20
2.94257113922
30
0.0
11
25.1545009105
21
3.22088964334
31
0.0
0
LINE
5
80
100
AcDbEntity
100
AcDbLine
8
3
62
256
370
-1
6
ByLayer
10
25.1545009105
20
3.22088964334
30
0.0
11
25.4120898563
21
3.51465224775
31
0.0
0
LINE
5
81
100
AcDbEntity
100
AcDbLine
8
3
62
256
370
-1
6
ByLayer
10
25.4120898563
20
3.51465224775
30
0.0
11
25.6693710339
21
3.82403904749
31
0.0
0
LINE
5
82
100
AcDbEntity
100
AcDbLine
8
3
62
256
370
-1
6
ByLayer
10
25.6693710339
20
3.82403904749
30
0.0
11
25.925678905
21
4.14920503832
31
0.0
0
LINE
5
83
100
AcDbEntity
100
AcDbLine
8
3
62
256
370
-1
6
ByLayer
10
25.925678905
20
4.14920503832
30
0.0
11
26.1803398875
21
4.4902797658
31
0.0
0
LINE
5
84
100
AcDbEntity
100
AcDbLine
8
3
62
256
370
-1
6
ByLayer
10
26.1803398875
20
4.4902797658
30
0.0
11
26.4326732856
21
4.84736700732
31
0.0
0
LINE
5
85
100
AcDbEntity
100
AcDbLine
8
3
62
256
370
-1
6
ByLayer
10
26.4326732856
20
4.84736700732
30
0.0
11
26.6819922323
21
5.22054448751
31
0.0
0
LINE
5
86
100
AcDbEntity
100
AcDbLine
8
3
62
256
370
-1
6
ByLayer
10
26.6819922323
20
5.22054448751
30
0.0
11
26.9276046419
21
5.60986362732
31
0.0
0
LINE
5
87
100
AcDbEntity
100
AcDbLine
8
3
62
256
370
-1
6
ByLayer
10
26.9276046419
20
5.60986362732
30
0.0
11
27.1688141714
21
6.01534932722
31
0.0
0
LINE
5
88
100
AcDbEntity
100
AcDbLine
8
3
62
256
370
-1
6
ByLayer
10
27.1688141714
20
6.01534932722
30
0.0
11
27.4049211897
21
6.43699978479
31
0.0
0
LINE
5
89
100
AcDbEntity
100
AcDbLine
8
3
62
256
370
-1
6
ByLayer
10
27.4049211897
20
6.43699978479
30
0.0
11
27.6352237537
21
6.87478634699
31
0.0
0
LINE
5
90
100
AcDbEntity
100
AcDbLine
8
3
62
256
370
-1
6
ByLayer
10
27.6352237537
20
6.87478634699
30
0.0
11
27.8590185899
21
7.3286533973
31
0.0
0
LINE
5
91
100
AcDbEntity
100
AcDbLine
8
3
62
256
370
-1
6
ByLayer
10
27.8590185899
20
7.3286533973
30
0.0
11
28.0756020795
21
7.79851827798
31
0.0
0
LINE
5
92
100
AcDbEntity
100
AcDbLine
8
3
62
256
370
-1
6
ByLayer
10
28.0756020795
20
7.79851827798
30
0.0
11
28.2842712475
21
8.28427124746
31
0.0
0
LINE
5
93
100
AcDbEntity
100
AcDbLine
8
3
62
256
370
-1
6
ByLayer
10
28.2842712475
20
8.28427124746
30
0.0
11
28.4843247524
21
8.78577547316
31
0.0
0
LINE
5
94
100
AcDbEntity
100
AcDbLine
8
3
62
256
370
-1
6
ByLayer
10
28.4843247524
20
8.78577547316
30
0.0
11
28.6750638774
21
9.30286705957
31
0.0
0
LINE
5
95
100
AcDbEntity
100
AcDbLine
8
3
62
256
370
-1
6
ByLayer
10
28.6750638774
20
9.30286705957
30
0.0
11
28.8557935197
21
9.83535511173
31
0.0
0
LINE
5
96
100
AcDbEntity
100
AcDbLine
8
3
62
256
370
-1
6
ByLayer
10
28.8557935197
20
9.83535511173
30
0.0
11
29.0258231788
21
10.3830218341
31
0.0
0
LINE
5
97
100
AcDbEntity
100
AcDbLine
8
3
62
256
370
-1
6
ByLayer
10
29.0258231788
20
10.3830218341
30
0.0
11
29.1844679408
21
10.9456226645
31
0.0
0
LINE
5
98
100
AcDbEntity
100
AcDbLine
8
3
62
256
370
-1
6
ByLayer
10
29.1844679408
20
10.9456226645
30
0.0
11
29.3310494583
21
11.5228864436
31
0.0
0
LINE
5
99
100
AcDbEntity
100
AcDbLine
8
3
62
256
370
-1
6
ByLayer
10
29.3310494583
20
11.5228864436
30
0.0
11
29.464896925
21
12.1145156187
31
0.0
0
LINE
5
100
100
AcDbEntity
100
AcDbLine
8
3
62
256
370
-1
6
ByLayer
10
29.464896925
20
12.1145156187
30
0.0
11
29.5853480424
21
12.7201864831
31
0.0
0
LINE
5
101
100
AcDbEntity
100
AcDbLine
8
3
62
256
370
-1
6
ByLayer
10
29.5853480424
20
12.7201864831
30
0.0
11
29.6917499792
21
13.3395494491
31
0.0
0
LINE
5
102
100
AcDbEntity
100
AcDbLine
8
3
62
256
370
-1
6
ByLayer
10
29.6917499792
20
13.3395494491
30
0.0
11
29.7834603206
21
13.9722293558
31
0.0
0
LINE
5
103
100
AcDbEntity
100
AcDbLine
8
3
62
256
370
-1
6
ByLayer
10
29.7834603206
20
13.9722293558
30
0.0
11
29.8598480071
21
14.6178258109
31
0.0
0
LINE
5
104
100
AcDbEntity
100
AcDbLine
8
3
62
256
370
-1
6
ByLayer
10
29.8598480071
20
14.6178258109
30
0.0
11
29.9202942621
21
15.275913565
31
0.0
0
LINE
5
105
100
AcDbEntity
100
AcDbLine
8
3
62
256
370
-1
6
ByLayer
10
29.9202942621
20
15.275913565
30
0.0
11
29.9641935051
21
15.9460429203
31
0.0
0
LINE
5
106
100
AcDbEntity
100
AcDbLine
8
3
62
256
370
-1
6
ByLayer
10
29.9641935051
20
15.9460429203
30
0.0
11
29.9909542521
21
16.6277401709
31
0.0
0
LINE
5
107
100
AcDbEntity
100
AcDbLine
8
3
62
256
370
-1
6
ByLayer
10
29.9909542521
20
16.6277401709
30
0.0
11
30.0
21
17.3205080757
31
0.0
0
LINE
5
108
100
AcDbEntity
100
AcDbLine
8
3
62
256
370
-1
6
ByLayer
10
30.0
20
17.3205080757
30
0.0
11
29.9907700945
21
18.0238263624
31
0.0
0
LINE
5
109
100
AcDbEntity
100
AcDbLine
8
3
62
256
370
-1
6
ByLayer
10
29.9907700945
20
18.0238263624
30
0.0
11
29.9627205809
21
18.7371522633
31
0.0
0
LINE
5
110
100
AcDbEntity
100
AcDbLine
8
3
62
256
370
-1
6
ByLayer
10
29.9627205809
20
18.7371522633
30
0.0
11
29.9153250354
21
19.45992108
31
0.0
0
LINE
5
111
100
AcDbEntity
100
AcDbLine
8
3
62
256
370
-1
6
ByLayer
10
29.9153250354
20
19.45992108
30
0.0
11
29.8480753781
21
20.1915467798
31
0.0
0
LINE
5
112
100
AcDbEntity
100
AcDbLine
8
3
62
256
370
-1
6
ByLayer
10
29.8480753781
20
20.1915467798
30
0.0
11
29.7604826634
21
20.9314226191
31
0.0
0
LINE
5
113
100
AcDbEntity
100
AcDbLine
8
3
62
256
370
-1
6
ByLayer
10
29.7604826634
20
20.9314226191
30
0.0
11
29.6520778502
21
21.6789217962
31
0.0
0
LINE
5
114
100
AcDbEntity
100
AcDbLine
8
3
62
256
370
-1
6
ByLayer
10
29.6520778502
20
21.6789217962
30
0.0
11
29.5224125488
21
22.4333981313
31
0.0
0
LINE
5
115
100
AcDbEntity
100
AcDbLine
8
3
62
256
370
-1
6
ByLayer
10
29.5224125488
20
22.4333981313
30
0.0
11
29.3710597434
21
23.1941867735
31
0.0
0
LINE
5
116
100
AcDbEntity
100
AcDbLine
8
3
62
256
370
-1
6
ByLayer
10
29.3710597434
20
23.1941867735
30
0.0
11
29.1976144914
21
23.9606049327
31
0.0
0
LINE
5
117
100
AcDbEntity
100
AcDbLine
8
3
62
256
370
-1
6
ByLayer
10
29.1976144914
20
23.9606049327
30
0.0
11
29.0016945954
21
24.7319526377
31
0.0
0
LINE
5
118
100
AcDbEntity
100
AcDbLine
8
3
62
256
370
-1
6
ByLayer
10
29.0016945954
20
24.7319526377
30
0.0
11
28.7829412504
21
25.5075135175
31
0.0
0
LINE
5
119
100
AcDbEntity
100
AcDbLine
8
3
62
256
370
-1
6
ByLayer
10
28.7829412504
20
25.5075135175
30
0.0
11
28.5410196625
21
26.286555606
31
0.0
0
LINE
5
120
100
AcDbEntity
100
AcDbLine
8
3
62
256
370
-1
6
ByLayer
10
28.5410196625
20
26.286555606
30
0.0
11
28.27561964
21
27.0683321691
31
0.0
0
LINE
5
121
100
AcDbEntity
100
AcDbLine
8
3
62
256
370
-1
6
ByLayer
10
28.27561964
20
27.0683321691
30
0.0
11
27.9864561558
21
27.8520825529
31
0.0
0
LINE
5
122
100
AcDbEntity
100
AcDbLine
8
3
62
256
370
-1
6
ByLayer
10
27.9864561558
20
27.8520825529
30
0.0
11
27.6732698798
21
28.6370330516
31
0.0
0
LINE
5
123
100
AcDbEntity
100
AcDbLine
8
3
62
256
370
-1
6
ByLayer
10
27.6732698798
20
28.6370330516
30
0.0
11
27.3358276812
21
29.4223977953
31
0.0
0
LINE
5
124
100
AcDbEntity
100
AcDbLine
8
3
62
256
370
-1
6
ByLayer
10
27.3358276812
20
29.4223977953
30
0.0
11
26.9739230997
21
30.2073796556
31
0.0
0
LINE
5
125
100
AcDbEntity
100
AcDbLine
8
3
62
256
370
-1
6
ByLayer
10
26.9739230997
20
30.2073796556
30
0.0
11
26.5873767856
21
30.9911711678
31
0.0
0
LINE
5
126
100
AcDbEntity
100
AcDbLine
8
3
62
256
370
-1
6
ByLayer
10
26.5873767856
20
30.9911711678
30
0.0
11
26.1760369064
21
31.7729554696
31
0.0
0
LINE
5
127
100
AcDbEntity
100
AcDbLine
8
3
62
256
370
-1
6
ByLayer
10
26.1760369064
20
31.7729554696
30
0.0
11
25.7397795224
21
32.551907254
31
0.0
0
LINE
5
128
100
AcDbEntity
100
AcDbLine
8
3
62
256
370
-1
6
ByLayer
10
25.7397795224
20
32.551907254
30
0.0
11
25.2785089275
21
33.3271937363
31
0.0
0
LINE
5
129
100
AcDbEntity
100
AcDbLine
8
3
62
256
370
-1
6
ByLayer
10
25.2785089275
20
33.3271937363
30
0.0
11
24.7921579572
21
34.0979756333
31
0.0
0
LINE
5
130
100
AcDbEntity
100
AcDbLine
8
3
62
256
370
-1
6
ByLayer
10
24.7921579572
20
34.0979756333
30
0.0
11
24.2806882617
21
34.8634081537
31
0.0
0
LINE
5
131
100
AcDbEntity
100
AcDbLine
8
3
62
256
370
-1
6
ByLayer
10
24.2806882617
20
34.8634081537
30
0.0
11
23.7440905454
21
35.6226419984
31
0.0
0
LINE
5
132
100
AcDbEntity
100
AcDbLine
8
3
62
256
370
-1
6
ByLayer
10
23.7440905454
20
35.6226419984
30
0.0
11
23.1823847702
21
36.3748243703
31
0.0
0
LINE
5
133
100
AcDbEntity
100
AcDbLine
8
3
62
256
370
-1
6
ByLayer
10
23.1823847702
20
36.3748243703
30
0.0
11
22.5956203246
21
37.1190999912
31
0.0
0
LINE
5
134
100
AcDbEntity
100
AcDbLine
8
3
62
256
370
-1
6
ByLayer
10
22.5956203246
20
37.1190999912
30
0.0
11
21.9838761571
21
37.8546121248
31
0.0
0
LINE
5
135
100
AcDbEntity
100
AcDbLine
8
3
62
256
370
-1
6
ByLayer
10
21.9838761571
20
37.8546121248
30
0.0
11
21.3472608733
21
38.5805036059
31
0.0
0
LINE
5
136
100
AcDbEntity
100
AcDbLine
8
3
62
256
370
-1
6
ByLayer
10
21.3472608733
20
38.5805036059
30
0.0
11
20.6859127979
21
39.2959178722
31
0.0
0
LINE
5
137
100
AcDbEntity
100
AcDbLine
8
3
62
256
370
-1
6
ByLayer
10
20.6859127979
20
39.2959178722
30
0.0
11
20.0
21
40.0
31
0.0
0
LINE
5
138
100
AcDbEntity
100
AcDbLine
8
3
62
256
370
-1
6
ByLayer
10
20.0
20
40.0
30
0.0
11
19.2897202829
21
40.6918977403
31
0.0
0
LINE
5
139
100
AcDbEntity
100
AcDbLine
8
3
62
256
370
-1
6
ByLayer
10
19.2897202829
20
40.6918977403
30
0.0
11
18.5553011371
21
41.3707625556
31
0.0
0
LINE
5
140
100
AcDbEntity
100
AcDbLine
8
3
62
256
370
-1
6
ByLayer
10
18.5553011371
20
41.3707625556
30
0.0
11
17.7969996576
21
42.0357506555
31
0.0
0
LINE
5
141
100
AcDbEntity
100
AcDbLine
8
3
62
256
370
-1
6
ByLayer
10
17.7969996576
20
42.0357506555
30
0.0
11
17.0151024251
21
42.6860240296
31
0.0
0
LINE
5
142
100
AcDbEntity
100
AcDbLine
8
3
62
256
370
-1
6
ByLayer
10
17.0151024251
20
42.6860240296
30
0.0
11
16.2099253503
21
43.320751477
31
0.0
0
LINE
5
143
100
AcDbEntity
100
AcDbLine
8
3
62
256
370
-1
6
ByLayer
10
16.2099253503
20
43.320751477
30
0.0
11
15.381813484
21
43.9391096311
31
0.0
0
LINE
5
144
100
AcDbEntity
100
AcDbLine
8
3
62
256
370
-1
6
ByLayer
10
15.381813484
20
43.9391096311
30
0.0
11
14.5311407893
21
44.5402839776
31
0.0
0
LINE
5
145
100
AcDbEntity
100
AcDbLine
8
3
62
256
370
-1
6
ByLayer
10
14.5311407893
20
44.5402839776
30
0.0
11
13.6583098804
21
45.123469866
31
0.0
0
LINE
5
146
100
AcDbEntity
100
AcDbLine
8
3
62
256
370
-1
6
ByLayer
10
13.6583098804
20
45.123469866
30
0.0
11
12.7637517243
21
45.6878735113
31
0.0
0
LINE
5
147
100
AcDbEntity
100
AcDbLine
8
3
62
256
370
-1
6
ByLayer
10
12.7637517243
20
45.6878735113
30
0.0
11
11.847925309
21
46.232712987
31
0.0
0
LINE
5
148
100
AcDbEntity
100
AcDbLine
8
3
62
256
370
-1
6
ByLayer
10
11.847925309
20
46.232712987
30
0.0
11
10.9113172763
21
46.7572192062
31
0.0
0
LINE
5
149
100
AcDbEntity
100
AcDbLine
8
3
62
256
370
-1
6
ByLayer
10
10.9113172763
20
46.7572192062
30
0.0
11
9.95444152014
21
47.2606368909
31
0.0
0
LINE
5
150
100
AcDbEntity
100
AcDbLine
8
3
62
256
370
-1
6
ByLayer
10
9.95444152014
20
47.2606368909
30
0.0
11
8.97783875223
21
47.7422255272
31
0.0
0
LINE
5
151
100
AcDbEntity
100
AcDbLine
8
3
62
256
370
-1
6
ByLayer
10
8.97783875223
20
47.7422255272
30
0.0
11
7.98207603319
21
48.2012603068
31
0.0
0
LINE
5
152
100
AcDbEntity
100
AcDbLine
8
3
62
256
370
-1
6
ByLayer
10
7.98207603319
20
48.2012603068
30
0.0
11
6.96774627159
21
48.6370330516
31
0.0
0
LINE
5
153
100
AcDbEntity
100
AcDbLine
8
3
62
256
370
-1
6
ByLayer
10
6.96774627159
20
48.6370330516
30
0.0
11
5.93546769045
21
49.0488531222
31
0.0
0
LINE
5
154
100
AcDbEntity
100
AcDbLine
8
3
62
256
370
-1
6
ByLayer
10
5.93546769045
20
49.0488531222
30
0.0
11
4.88588326219
21
49.4360483079
31
0.0
0
LINE
5
155
100
AcDbEntity
100
AcDbLine
8
3
62
256
370
-1
6
ByLayer
10
4.88588326219
20
49.4360483079
30
0.0
11
3.8196601125
21
49.7979656977
31
0.0
0
LINE
5
156
100
AcDbEntity
100
AcDbLine
8
3
62
256
370
-1
6
ByLayer
10
3.8196601125
20
49.7979656977
30
0.0
11
2.73748889385
21
50.1339725305
31
0.0
0
LINE
5
157
100
AcDbEntity
100
AcDbLine
8
3
62
256
370
-1
6
ByLayer
10
2.73748889385
20
50.1339725305
30
0.0
11
1.64008312935
21
50.4434570252
31
0.0
0
LINE
5
158
100
AcDbEntity
100
AcDbLine
8
3
62
256
370
-1
6
ByLayer
10
1.64008312935
20
50.4434570252
30
0.0
11
0.528178527736
21
50.7258291871
31
0.0
0
LINE
5
159
100
AcDbEntity
100
AcDbLine
8
3
62
256
370
-1
6
ByLayer
10
0.528178527736
20
50.7258291871
30
0.0
11
-0.597467729863
21
50.9805215919
31
0.0
0
LINE
5
160
100
AcDbEntity
100
AcDbLine
8
3
62
256
370
-1
6
ByLayer
10
-0.597467729863
20
50.9805215919
30
0.0
11
-1.73607773039
21
51.2069901449
31
0.0
0
LINE
5
161
100
AcDbEntity
100
AcDbLine
8
3
62
256
370
-1
6
ByLayer
10
-1.73607773039
20
51.2069901449
30
0.0
11
-2.88685359585
21
51.4047148153
31
0.0
0
LINE
5
162
100
AcDbEntity
100
AcDbLine
8
3
62
256
370
-1
6
ByLayer
10
-2.88685359585
20
51.4047148153
30
0.0
11
-4.0489782759
21
51.5732003438
31
0.0
0
LINE
5
163
100
AcDbEntity
100
AcDbLine
8
3
62
256
370
-1
6
ByLayer
10
-4.0489782759
20
51.5732003438
30
0.0
11
-5.22161636505
21
51.7119769241
31
0.0
0
LINE
5
164
100
AcDbEntity
100
AcDbLine
8
3
62
256
370
-1
6
ByLayer
10
-5.22161636505
20
51.7119769241
30
0.0
11
-6.40391494373
21
51.820600855
31
0.0
0
LINE
5
165
100
AcDbEntity
100
AcDbLine
8
3
62
256
370
-1
6
ByLayer
10
-6.40391494373
20
51.820600855
30
0.0
11
-7.59500444202
21
51.8986551655
31
0.0
0
LINE
5
166
100
AcDbEntity
100
AcDbLine
8
3
62
256
370
-1
6
ByLayer
10
-7.59500444202
20
51.8986551655
30
0.0
11
-8.79399952519
21
51.9457502087
31
0.0
0
LINE
5
167
100
AcDbEntity
100
AcDbLine
8
3
62
256
370
-1
6
ByLayer
10
-8.79399952519
20
51.9457502087
30
0.0
11
-10.0
21
51.9615242271
31
0.0
0
LINE
5
168
100
AcDbEntity
100
AcDbLine
8
3
62
256
370
-1
6
ByLayer
10
-10.0
20
51.9615242271
30
0.0
11
-11.2120917407
21
51.9456438853
31
0.0
0
LINE
5
169
100
AcDbEntity
100
AcDbLine
8
3
62
256
370
-1
6
ByLayer
10
-11.2120917407
20
51.9456438853
30
0.0
11
-12.4293476335
21
51.8978047722
31
0.0
0
LINE
5
170
100
AcDbEntity
100
AcDbLine
8
3
62
256
370
-1
6
ByLayer
10
-12.4293476335
20
51.8978047722
30
0.0
11
-13.6508285391
21
51.8177318707
31
0.0
0
LINE
5
171
100
AcDbEntity
100
AcDbLine
8
3
62
256
370
-1
6
ByLayer
10
-13.6508285391
20
51.8177318707
30
0.0
11
-14.8755842705
21
51.7051799935
31
0.0
0
LINE
5
172
100
AcDbEntity
100
AcDbLine
8
3
62
256
370
-1
6
ByLayer
10
-14.8755842705
20
51.7051799935
30
0.0
11
-16.1026545875
21
51.5599341873
31
0.0
0
LINE
5
173
100
AcDbEntity
100
AcDbLine
8
3
62
256
370
-1
6
ByLayer
10
-16.1026545875
20
51.5599341873
30
0.0
11
-17.3310702042
21
51.3818101009
31
0.0
0
LINE
5
174
100
AcDbEntity
100
AcDbLine
8
3
62
256
370
-1
6
ByLayer
10
-17.3310702042
20
51.3818101009
30
0.0
11
-18.5598538097
21
51.1706543207
31
0.0
0
LINE
5
175
100
AcDbEntity
100
AcDbLine
8
3
62
256
370
-1
6
ByLayer
10
-18.5598538097
20
51.1706543207
30
0.0
11
-19.788021101
21
50.9263446698
31
0.0
0
LINE
5
176
100
AcDbEntity
100
AcDbLine
8
3
62
256
370
-1
6
ByLayer
10
-19.788021101
20
50.9263446698
30
0.0
11
-21.0145818256
21
50.648790473
31
0.0
0
LINE
5
177
100
AcDbEntity
100
AcDbLine
8
3
62
256
370
-1
6
ByLayer
10
-21.0145818256
20
50.648790473
30
0.0
11
-22.2385408341
21
50.337932785
31
0.0
0
LINE
5
178
100
AcDbEntity
100
AcDbLine
8
3
62
256
370
-1
6
ByLayer
10
-22.2385408341
20
50.337932785
30
0.0
11
-23.4588991404
21
49.9937445837
31
0.0
0
LINE
5
179
100
AcDbEntity
100
AcDbLine
8
3
62
256
370
-1
6
ByLayer
10
-23.4588991404
20
49.9937445837
30
0.0
11
-24.674654989
21
49.6162309265
31
0.0
0
LINE
5
180
100
AcDbEntity
100
AcDbLine
8
3
62
256
370
-1
6
ByLayer
10
-24.674654989
20
49.6162309265
30
0.0
11
-25.8848049276
21
49.20542907
31
0.0
0
LINE
5
181
100
AcDbEntity
100
AcDbLine
8
3
62
256
370
-1
6
ByLayer
10
-25.8848049276
20
49.20542907
30
0.0
11
-27.0883448843
21
48.7614085539
31
0.0
0
LINE
5
182
100
AcDbEntity
100
AcDbLine
8
3
62
256
370
-1
6
ByLayer
10
-27.0883448843
20
48.7614085539
30
0.0
11
-28.2842712475
21
48.2842712475
31
0.0
0
LINE
5
183
100
AcDbEntity
100
AcDbLine
8
3
62
256
370
-1
6
ByLayer
10
-28.2842712475
20
48.2842712475
30
0.0
11
-29.4715819476
21
47.7741513587
31
0.0
0
LINE
5
184
100
AcDbEntity
100
AcDbLine
8
3
62
256
370
-1
6
ByLayer
10
-29.4715819476
20
47.7741513587
30
0.0
11
-30.6492775396
21
47.2312154077
31
0.0
0
LINE
5
185
100
AcDbEntity
100
AcDbLine
8
3
62
256
370
-1
6
ByLayer
10
-30.6492775396
20
47.2312154077
30
0.0
11
-31.8163622844
21
46.6556621617
31
0.0
0
LINE
5
186
100
AcDbEntity
100
AcDbLine
8
3
62
256
370
-1
6
ByLayer
10
-31.8163622844
20
46.6556621617
30
0.0
11
-32.9718452281
21
46.0477225345
31
0.0
0
LINE
5
187
100
AcDbEntity
100
AcDbLine
8
3
62
256
370
-1
6
ByLayer
10
-32.9718452281
20
46.0477225345
30
0.0
11
-34.1147412781
21
45.4076594477
31
0.0
0
LINE
5
188
100
AcDbEntity
100
AcDbLine
8
3
62
256
370
-1
6
ByLayer
10
-34.1147412781
20
45.4076594477
30
0.0
11
-35.2440722746
21
44.7357676567
31
0.0
0
LINE
5
189
100
AcDbEntity
100
AcDbLine
8
3
62
256
370
-1
6
ByLayer
10
-35.2440722746
20
44.7357676567
30
0.0
11
-36.3588680563
21
44.0323735385
31
0.0
0
LINE
5
190
100
AcDbEntity
100
AcDbLine
8
3
62
256
370
-1
6
ByLayer
10
-36.3588680563
20
44.0323735385
30
0.0
11
-37.4581675182
21
43.2978348448
31
0.0
0
LINE
5
191
100
AcDbEntity
100
AcDbLine
8
3
62
256
370
-1
6
ByLayer
10
-37.4581675182
20
43.2978348448
30
0.0
11
-38.5410196625
21
42.5325404176
31
0.0
0
LINE
5
192
100
AcDbEntity
100
AcDbLine
8
3
62
256
370
-1
6
ByLayer
10
-38.5410196625
20
42.5325404176
30
0.0
11
-39.6064846381
21
41.7369098698
31
0.0
0
LINE
5
193
100
AcDbEntity
100
AcDbLine
8
3
62
256
370
-1
6
ByLayer
10
-39.6064846381
20
41.7369098698
30
0.0
11
-40.6536347705
21
40.9113932302
31
0.0
0
LINE
5
194
100
AcDbEntity
100
AcDbLine
8
3
62
256
370
-1
6
ByLayer
10
-40.6536347705
20
40.9113932302
30
0.0
11
-41.6815555793
21
40.0564705535
31
0.0
0
LINE
5
195
100
AcDbEntity
100
AcDbLine
8
3
62
256
370
-1
6
ByLayer
10
-41.6815555793
20
40.0564705535
30
0.0
11
-42.689346782
21
39.1726514953
31
0.0
0
LINE
5
196
100
AcDbEntity
100
AcDbLine
8
3
62
256
370
-1
6
ByLayer
10
-42.689346782
20
39.1726514953
30
0.0
11
-43.6761232838
21
38.2604748536
31
0.0
0
LINE
5
197
100
AcDbEntity
100
AcDbLine
8
3
62
256
370
-1
6
ByLayer
10
-43.6761232838
20
38.2604748536
30
0.0
11
-44.6410161514
21
37.3205080757
31
0.0
0
LINE
5
198
100
AcDbEntity
100
AcDbLine
8
3
62
256
370
-1
6
ByLayer
10
-44.6410161514
20
37.3205080757
30
0.0
11
-45.5831735702
21
36.353346733
31
0.0
0
LINE
5
199
100
AcDbEntity
100
AcDbLine
8
3
62
256
370
-1
6
ByLayer
10
-45.5831735702
20
36.353346733
30
0.0
11
-46.5017617838
21
35.3596139625
31
0.0
0
LINE
5
200
100
AcDbEntity
100
AcDbLine
8
3
62
256
370
-1
6
ByLayer
10
-46.5017617838
20
35.3596139625
30
0.0
11
-47.3959660134
21
34.3399598771
31
0.0
0
LINE
5
201
100
AcDbEntity
100
AcDbLine
8
3
62
256
370
-1
6
ByLayer
10
-47.3959660134
20
34.3399598771
30
0.0
11
-48.2649913585
21
33.2950609437
31
0.0
0
LINE
5
202
100
AcDbEntity
100
AcDbLine
8
3
62
256
370
-1
6
ByLayer
10
-48.2649913585
20
33.2950609437
30
0.0
11
-49.1080636752
21
32.225619332
31
0.0
0
LINE
5
203
100
AcDbEntity
100
AcDbLine
8
3
62
256
370
-1
6
ByLayer
10
-49.1080636752
20
32.225619332
30
0.0
11
-49.9244304329
21
31.1323622326
31
0.0
0
LINE
5
204
100
AcDbEntity
100
AcDbLine
8
3
62
256
370
-1
6
ByLayer
10
-49.9244304329
20
31.1323622326
30
0.0
11
-50.7133615473
21
30.0160411463
31
0.0
0
LINE
5
205
100
AcDbEntity
100
AcDbLine
8
3
62
256
370
-1
6
ByLayer
10
-50.7133615473
20
30.0160411463
30
0.0
11
-51.4741501894
21
28.8774311458
31
0.0
0
LINE
5
206
100
AcDbEntity
100
AcDbLine
8
3
62
256
370
-1
6
ByLayer
10
-51.4741501894
20
28.8774311458
30
0.0
11
-52.2061135694
21
27.717330109
31
0.0
0
LINE
5
207
100
AcDbEntity
100
AcDbLine
8
3
62
256
370
-1
6
ByLayer
10
-52.2061135694
20
27.717330109
30
0.0
11
-52.9085936938
21
26.5365579268
31
0.0
0
LINE
5
208
100
AcDbEntity
100
AcDbLine
8
3
62
256
370
-1
6
ByLayer
10
-52.9085936938
20
26.5365579268
30
0.0
11
-53.5809580961
21
25.3359556848
31
0.0
0
LINE
5
209
100
AcDbEntity
100
AcDbLine
8
3
62
256
370
-1
6
ByLayer
10
-53.5809580961
20
25.3359556848
30
0.0
11
-54.2226005393
21
24.1163848208
31
0.0
0
LINE
5
210
100
AcDbEntity
100
AcDbLine
8
3
62
256
370
-1
6
ByLayer
10
-54.2226005393
20
24.1163848208
30
0.0
11
-54.8329416896
21
22.8787262583
31
0.0
0
LINE
5
211
100
AcDbEntity
100
AcDbLine
8
3
62
256
370
-1
6
ByLayer
10
-54.8329416896
20
22.8787262583
30
0.0
11
-55.4114297607
21
21.6238795173
31
0.0
0
LINE
5
212
100
AcDbEntity
100
AcDbLine
8
3
62
256
370
-1
6
ByLayer
10
-55.4114297607
20
21.6238795173
30
0.0
11
-55.9575411273
21
20.3527618041
31
0.0
0
LINE
5
213
100
AcDbEntity
100
AcDbLine
8
3
62
256
370
-1
6
ByLayer
10
-55.9575411273
20
20.3527618041
30
0.0
11
-56.4707809082
21
19.0663070797
31
0.0
0
LINE
5
214
100
AcDbEntity
100
AcDbLine
8
3
62
256
370
-1
6
ByLayer
10
-56.4707809082
20
19.0663070797
30
0.0
11
-56.9506835174
21
17.7654651095
31
0.0
0
LINE
5
215
100
AcDbEntity
100
AcDbLine
8
3
62
256
370
-1
6
ByLayer
10
-56.9506835174
20
17.7654651095
30
0.0
11
-57.3968131822
21
16.4512004942
31
0.0
0
LINE
5
216
100
AcDbEntity
100
AcDbLine
8
3
62
256
370
-1
6
ByLayer
10
-57.3968131822
20
16.4512004942
30
0.0
11
-57.8087644292
21
15.1244916834
31
0.0
0
LINE
5
217
100
AcDbEntity
100
AcDbLine
8
3
62
256
370
-1
6
ByLayer
10
-57.8087644292
20
15.1244916834
30
0.0
11
-58.1861625362
21
13.7863299732
31
0.0
0
LINE
5
218
100
AcDbEntity
100
AcDbLine
8
3
62
256
370
-1
6
ByLayer
10
-58.1861625362
20
13.7863299732
30
0.0
11
-58.5286639497
21
12.4377184891
31
0.0
0
LINE
5
219
100
AcDbEntity
100
AcDbLine
8
3
62
256
370
-1
6
ByLayer
10
-58.5286639497
20
12.4377184891
30
0.0
11
-58.8359566684
21
11.0796711547
31
0.0
0
LINE
5
220
100
AcDbEntity
100
AcDbLine
8
3
62
256
370
-1
6
ByLayer
10
-58.8359566684
20
11.0796711547
30
0.0
11
-59.1077605912
21
9.7132116482
31
0.0
0
LINE
5
221
100
AcDbEntity
100
AcDbLine
8
3
62
256
370
-1
6
ByLayer
10
-59.1077605912
20
9.7132116482
30
0.0
11
-59.3438278294
21
8.33937234706
31
0.0
0
LINE
5
222
100
AcDbEntity
100
AcDbLine
8
3
62
256
370
-1
6
ByLayer
10
-59.3438278294
20
8.33937234706
30
0.0
11
-59.5439429839
21
6.95919326324
31
0.0
0
LINE
5
223
100
AcDbEntity
100
AcDbLine
8
3
62
256
370
-1
6
ByLayer
10
-59.5439429839
20
6.95919326324
30
0.0
11
-59.7079233852
21
5.57372096897
31
0.0
0
LINE
5
224
100
AcDbEntity
100
AcDbLine
8
3
62
256
370
-1
6
ByLayer
10
-59.7079233852
20
5.57372096897
30
0.0
11
-59.8356192975
21
4.18400751507
31
0.0
0
LINE
5
225
100
AcDbEntity
100
AcDbLine
8
3
62
256
370
-1
6
ByLayer
10
-59.8356192975
20
4.18400751507
30
0.0
11
-59.926914086
21
2.79110934298
31
0.0
0
LINE
5
226
100
AcDbEntity
100
AcDbLine
8
3
62
256
370
-1
6
ByLayer
10
-59.926914086
20
2.79110934298
30
0.0
11
-59.9817243466
21
1.39608619154
31
0.0
0
LINE
5
227
100
AcDbEntity
100
AcDbLine
8
3
62
256
370
-1
6
ByLayer
10
-59.9817243466
20
1.39608619154
30
0.0
11
-60.0
21
9.79685083058e-15
31
0.0
0
LINE
5
228
100
AcDbEntity
100
AcDbLine
8
3
62
256
370
-1
6
ByLayer
10
-60.0
20
9.79685083058e-15
30
0.0
11
-59.9817243466
21
-1.39608619154
31
0.0
0
LINE
5
229
100
AcDbEntity
100
AcDbLine
8
3
62
256
370
-1
6
ByLayer
10
-59.9817243466
20
-1.39608619154
30
0.0
11
-59.926914086
21
-2.79110934298
31
0.0
0
LINE
5
230
100
AcDbEntity
100
AcDbLine
8
3
62
256
370
-1
6
ByLayer
10
-59.926914086
20
-2.79110934298
30
0.0
11
-59.8356192975
21
-4.18400751507
31
0.0
0
LINE
5
231
100
AcDbEntity
100
AcDbLine
8
3
62
256
370
-1
6
ByLayer
10
-59.8356192975
20
-4.18400751507
30
0.0
11
-59.7079233852
21
-5.57372096897
31
0.0
0
LINE
5
232
100
AcDbEntity
100
AcDbLine
8
3
62
256
370
-1
6
ByLayer
10
-59.7079233852
20
-5.57372096897
30
0.0
11
-59.5439429839
21
-6.95919326324
31
0.0
0
LINE
5
233
100
AcDbEntity
100
AcDbLine
8
3
62
256
370
-1
6
ByLayer
10
-59.5439429839
20
-6.95919326324
30
0.0
11
-59.3438278294
21
-8.33937234706
31
0.0
0
LINE
5
234
100
AcDbEntity
100
AcDbLine
8
3
62
256
370
-1
6
ByLayer
10
-59.3438278294
20
-8.33937234706
30
0.0
11
-59.1077605912
21
-9.7132116482
31
0.0
0
LINE
5
235
100
AcDbEntity
100
AcDbLine
8
3
62
256
370
-1
6
ByLayer
10
-59.1077605912
20
-9.7132116482
30
0.0
11
-58.8359566684
21
-11.0796711547
31
0.0
0
LINE
5
236
100
AcDbEntity
100
AcDbLine
8
3
62
256
370
-1
6
ByLayer
10
-58.8359566684
20
-11.0796711547
30
0.0
11
-58.5286639497
21
-12.4377184891
31
0.0
0
LINE
5
237
100
AcDbEntity
100
AcDbLine
8
3
62
256
370
-1
6
ByLayer
10
-58.5286639497
20
-12.4377184891
30
0.0
11
-58.1861625362
21
-13.7863299732
31
0.0
0
LINE
5
238
100
AcDbEntity
100
AcDbLine
8
3
62
256
370
-1
6
ByLayer
10
-58.1861625362
20
-13.7863299732
30
0.0
11
-57.8087644292
21
-15.1244916834
31
0.0
0
LINE
5
239
100
AcDbEntity
100
AcDbLine
8
3
62
256
370
-1
6
ByLayer
10
-57.8087644292
20
-15.1244916834
30
0.0
11
-57.3968131822
21
-16.4512004942
31
0.0
0
LINE
5
240
100
AcDbEntity
100
AcDbLine
8
3
62
256
370
-1
6
ByLayer
10
-57.3968131822
20
-16.4512004942
30
0.0
11
-56.9506835174
21
-17.7654651095
31
0.0
0
LINE
5
241
100
AcDbEntity
100
AcDbLine
8
3
62
256
370
-1
6
ByLayer
10
-56.9506835174
20
-17.7654651095
30
0.0
11
-56.4707809082
21
-19.0663070797
31
0.0
0
LINE
5
242
100
AcDbEntity
100
AcDbLine
8
3
62
256
370
-1
6
ByLayer
10
-56.4707809082
20
-19.0663070797
30
0.0
11
-55.9575411273
21
-20.3527618041
31
0.0
0
LINE
5
243
100
AcDbEntity
100
AcDbLine
8
3
62
256
370
-1
6
ByLayer
10
-55.9575411273
20
-20.3527618041
30
0.0
11
-55.4114297607
21
-21.6238795173
31
0.0
0
LINE
5
244
100
AcDbEntity
100
AcDbLine
8
3
62
256
370
-1
6
ByLayer
10
-55.4114297607
20
-21.6238795173
30
0.0
11
-54.8329416896
21
-22.8787262583
31
0.0
0
LINE
5
245
100
AcDbEntity
100
AcDbLine
8
3
62
256
370
-1
6
ByLayer
10
-54.8329416896
20
-22.8787262583
30
0.0
11
-54.2226005393
21
-24.1163848208
31
0.0
0
LINE
5
246
100
AcDbEntity
100
AcDbLine
8
3
62
256
370
-1
6
ByLayer
10
-54.2226005393
20
-24.1163848208
30
0.0
11
-53.5809580961
21
-25.3359556848
31
0.0
0
LINE
5
247
100
AcDbEntity
100
AcDbLine
8
3
62
256
370
-1
6
ByLayer
10
-53.5809580961
20
-25.3359556848
30
0.0
11
-52.9085936938
21
-26.5365579268
31
0.0
0
LINE
5
248
100
AcDbEntity
100
AcDbLine
8
3
62
256
370
-1
6
ByLayer
10
-52.9085936938
20
-26.5365579268
30
0.0
11
-52.2061135694
21
-27.717330109
31
0.0
0
LINE
5
249
100
AcDbEntity
100
AcDbLine
8
3
62
256
370
-1
6
ByLayer
10
-52.2061135694
20
-27.717330109
30
0.0
11
-51.4741501894
21
-28.8774311458
31
0.0
0
LINE
5
250
100
AcDbEntity
100
AcDbLine
8
3
62
256
370
-1
6
ByLayer
10
-51.4741501894
20
-28.8774311458
30
0.0
11
-50.7133615473
21
-30.0160411463
31
0.0
0
LINE
5
251
100
AcDbEntity
100
AcDbLine
8
3
62
256
370
-1
6
ByLayer
10
-50.7133615473
20
-30.0160411463
30
0.0
11
-49.9244304329
21
-31.1323622326
31
0.0
0
LINE
5
252
100
AcDbEntity
100
AcDbLine
8
3
62
256
370
-1
6
ByLayer
10
-49.9244304329
20
-31.1323622326
30
0.0
11
-49.1080636752
21
-32.225619332
31
0.0
0
LINE
5
253
100
AcDbEntity
100
AcDbLine
8
3
62
256
370
-1
6
ByLayer
10
-49.1080636752
20
-32.225619332
30
0.0
11
-48.2649913585
21
-33.2950609437
31
0.0
0
LINE
5
254
100
AcDbEntity
100
AcDbLine
8
3
62
256
370
-1
6
ByLayer
10
-48.2649913585
20
-33.2950609437
30
0.0
11
-47.3959660134
21
-34.3399598771
31
0.0
0
LINE
5
255
100
AcDbEntity
100
AcDbLine
8
3
62
256
370
-1
6
ByLayer
10
-47.3959660134
20
-34.3399598771
30
0.0
11
-46.5017617838
21
-35.3596139625
31
0.0
0
LINE
5
256
100
AcDbEntity
100
AcDbLine
8
3
62
256
370
-1
6
ByLayer
10
-46.5017617838
20
-35.3596139625
30
0.0
11
-45.5831735702
21
-36.353346733
31
0.0
0
LINE
5
257
100
AcDbEntity
100
AcDbLine
8
3
62
256
370
-1
6
ByLayer
10
-45.5831735702
20
-36.353346733
30
0.0
11
-44.6410161514
21
-37.3205080757
31
0.0
0
LINE
5
258
100
AcDbEntity
100
AcDbLine
8
3
62
256
370
-1
6
ByLayer
10
-44.6410161514
20
-37.3205080757
30
0.0
11
-43.6761232838
21
-38.2604748536
31
0.0
0
LINE
5
259
100
AcDbEntity
100
AcDbLine
8
3
62
256
370
-1
6
ByLayer
10
-43.6761232838
20
-38.2604748536
30
0.0
11
-42.689346782
21
-39.1726514953
31
0.0
0
LINE
5
260
100
AcDbEntity
100
AcDbLine
8
3
62
256
370
-1
6
ByLayer
10
-42.689346782
20
-39.1726514953
30
0.0
11
-41.6815555793
21
-40.0564705535
31
0.0
0
LINE
5
261
100
AcDbEntity
100
AcDbLine
8
3
62
256
370
-1
6
ByLayer
10
-41.6815555793
20
-40.0564705535
30
0.0
11
-40.6536347705
21
-40.9113932302
31
0.0
0
LINE
5
262
100
AcDbEntity
100
AcDbLine
8
3
62
256
370
-1
6
ByLayer
10
-40.6536347705
20
-40.9113932302
30
0.0
11
-39.6064846381
21
-41.7369098698
31
0.0
0
LINE
5
263
100
AcDbEntity
100
AcDbLine
8
3
62
256
370
-1
6
ByLayer
10
-39.6064846381
20
-41.7369098698
30
0.0
11
-38.5410196625
21
-42.5325404176
31
0.0
0
LINE
5
264
100
AcDbEntity
100
AcDbLine
8
3
62
256
370
-1
6
ByLayer
10
-38.5410196625
20
-42.5325404176
30
0.0
11
-37.4581675182
21
-43.2978348448
31
0.0
0
LINE
5
265
100
AcDbEntity
100
AcDbLine
8
3
62
256
370
-1
6
ByLayer
10
-37.4581675182
20
-43.2978348448
30
0.0
11
-36.3588680563
21
-44.0323735385
31
0.0
0
LINE
5
266
100
AcDbEntity
100
AcDbLine
8
3
62
256
370
-1
6
ByLayer
10
-36.3588680563
20
-44.0323735385
30
0.0
11
-35.2440722746
21
-44.7357676567
31
0.0
0
LINE
5
267
100
AcDbEntity
100
AcDbLine
8
3
62
256
370
-1
6
ByLayer
10
-35.2440722746
20
-44.7357676567
30
0.0
11
-34.1147412781
21
-45.4076594477
31
0.0
0
LINE
5
268
100
AcDbEntity
100
AcDbLine
8
3
62
256
370
-1
6
ByLayer
10
-34.1147412781
20
-45.4076594477
30
0.0
11
-32.9718452281
21
-46.0477225345
31
0.0
0
LINE
5
269
100
AcDbEntity
100
AcDbLine
8
3
62
256
370
-1
6
ByLayer
10
-32.9718452281
20
-46.0477225345
30
0.0
11
-31.8163622844
21
-46.6556621617
31
0.0
0
LINE
5
270
100
AcDbEntity
100
AcDbLine
8
3
62
256
370
-1
6
ByLayer
10
-31.8163622844
20
-46.6556621617
30
0.0
11
-30.6492775396
21
-47.2312154077
31
0.0
0
LINE
5
271
100
AcDbEntity
100
AcDbLine
8
3
62
256
370
-1
6
ByLayer
10
-30.6492775396
20
-47.2312154077
30
0.0
11
-29.4715819476
21
-47.7741513587
31
0.0
0
LINE
5
272
100
AcDbEntity
100
AcDbLine
8
3
62
256
370
-1
6
ByLayer
10
-29.4715819476
20
-47.7741513587
30
0.0
11
-28.2842712475
21
-48.2842712475
31
0.0
0
LINE
5
273
100
AcDbEntity
100
AcDbLine
8
3
62
256
370
-1
6
ByLayer
10
-28.2842712475
20
-48.2842712475
30
0.0
11
-27.0883448843
21
-48.7614085539
31
0.0
0
LINE
5
274
100
AcDbEntity
100
AcDbLine
8
3
62
256
370
-1
6
ByLayer
10
-27.0883448843
20
-48.7614085539
30
0.0
11
-25.8848049276
21
-49.20542907
31
0.0
0
LINE
5
275
100
AcDbEntity
100
AcDbLine
8
3
62
256
370
-1
6
ByLayer
10
-25.8848049276
20
-49.20542907
30
0.0
11
-24.674654989
21
-49.6162309265
31
0.0
0
LINE
5
276
100
AcDbEntity
100
AcDbLine
8
3
62
256
370
-1
6
ByLayer
10
-24.674654989
20
-49.6162309265
30
0.0
11
-23.4588991404
21
-49.9937445837
31
0.0
0
LINE
5
277
100
AcDbEntity
100
AcDbLine
8
3
62
256
370
-1
6
ByLayer
10
-23.4588991404
20
-49.9937445837
30
0.0
11
-22.2385408341
21
-50.337932785
31
0.0
0
LINE
5
278
100
AcDbEntity
100
AcDbLine
8
3
62
256
370
-1
6
ByLayer
10
-22.2385408341
20
-50.337932785
30
0.0
11
-21.0145818256
21
-50.648790473
31
0.0
0
LINE
5
279
100
AcDbEntity
100
AcDbLine
8
3
62
256
370
-1
6
ByLayer
10
-21.0145818256
20
-50.648790473
30
0.0
11
-19.788021101
21
-50.9263446698
31
0.0
0
LINE
5
280
100
AcDbEntity
100
AcDbLine
8
3
62
256
370
-1
6
ByLayer
10
-19.788021101
20
-50.9263446698
30
0.0
11
-18.5598538097
21
-51.1706543207
31
0.0
0
LINE
5
281
100
AcDbEntity
100
AcDbLine
8
3
62
256
370
-1
6
ByLayer
10
-18.5598538097
20
-51.1706543207
30
0.0
11
-17.3310702042
21
-51.3818101009
31
0.0
0
LINE
5
282
100
AcDbEntity
100
AcDbLine
8
3
62
256
370
-1
6
ByLayer
10
-17.3310702042
20
-51.3818101009
30
0.0
11
-16.1026545875
21
-51.5599341873
31
0.0
0
LINE
5
283
100
AcDbEntity
100
AcDbLine
8
3
62
256
370
-1
6
ByLayer
10
-16.1026545875
20
-51.5599341873
30
0.0
11
-14.8755842705
21
-51.7051799935
31
0.0
0
LINE
5
284
100
AcDbEntity
100
AcDbLine
8
3
62
256
370
-1
6
ByLayer
10
-14.8755842705
20
-51.7051799935
30
0.0
11
-13.6508285391
21
-51.8177318707
31
0.0
0
LINE
5
285
100
AcDbEntity
100
AcDbLine
8
3
62
256
370
-1
6
ByLayer
10
-13.6508285391
20
-51.8177318707
30
0.0
11
-12.4293476335
21
-51.8978047722
31
0.0
0
LINE
5
286
100
AcDbEntity
100
AcDbLine
8
3
62
256
370
-1
6
ByLayer
10
-12.4293476335
20
-51.8978047722
30
0.0
11
-11.2120917407
21
-51.9456438853
31
0.0
0
LINE
5
287
100
AcDbEntity
100
AcDbLine
8
3
62
256
370
-1
6
ByLayer
10
-11.2120917407
20
-51.9456438853
30
0.0
11
-10.0
21
-51.9615242271
31
0.0
0
LINE
5
288
100
AcDbEntity
100
AcDbLine
8
3
62
256
370
-1
6
ByLayer
10
-10.0
20
-51.9615242271
30
0.0
11
-8.79399952519
21
-51.9457502087
31
0.0
0
LINE
5
289
100
AcDbEntity
100
AcDbLine
8
3
62
256
370
-1
6
ByLayer
10
-8.79399952519
20
-51.9457502087
30
0.0
11
-7.59500444202
21
-51.8986551655
31
0.0
0
LINE
5
290
100
AcDbEntity
100
AcDbLine
8
3
62
256
370
-1
6
ByLayer
10
-7.59500444202
20
-51.8986551655
30
0.0
11
-6.40391494373
21
-51.820600855
31
0.0
0
LINE
5
291
100
AcDbEntity
100
AcDbLine
8
3
62
256
370
-1
6
ByLayer
10
-6.40391494373
20
-51.820600855
30
0.0
11
-5.22161636505
21
-51.7119769241
31
0.0
0
LINE
5
292
100
AcDbEntity
100
AcDbLine
8
3
62
256
370
-1
6
ByLayer
10
-5.22161636505
20
-51.7119769241
30
0.0
11
-4.0489782759
21
-51.5732003438
31
0.0
0
LINE
5
293
100
AcDbEntity
100
AcDbLine
8
3
62
256
370
-1
6
ByLayer
10
-4.0489782759
20
-51.5732003438
30
0.0
11
-2.88685359585
21
-51.4047148153
31
0.0
0
LINE
5
294
100
AcDbEntity
100
AcDbLine
8
3
62
256
370
-1
6
ByLayer
10
-2.88685359585
20
-51.4047148153
30
0.0
11
-1.73607773039
21
-51.2069901449
31
0.0
0
LINE
5
295
100
AcDbEntity
100
AcDbLine
8
3
62
256
370
-1
6
ByLayer
10
-1.73607773039
20
-51.2069901449
30
0.0
11
-0.597467729863
21
-50.9805215919
31
0.0
0
LINE
5
296
100
AcDbEntity
100
AcDbLine
8
3
62
256
370
-1
6
ByLayer
10
-0.597467729863
20
-50.9805215919
30
0.0
11
0.528178527736
21
-50.7258291871
31
0.0
0
LINE
5
297
100
AcDbEntity
100
AcDbLine
8
3
62
256
370
-1
6
ByLayer
10
0.528178527736
20
-50.7258291871
30
0.0
11
1.64008312935
21
-50.4434570252
31
0.0
0
LINE
5
298
100
AcDbEntity
100
AcDbLine
8
3
62
256
370
-1
6
ByLayer
10
1.64008312935
20
-50.4434570252
30
0.0
11
2.73748889385
21
-50.1339725305
31
0.0
0
LINE
5
299
100
AcDbEntity
100
AcDbLine
8
3
62
256
370
-1
6
ByLayer
10
2.73748889385
20
-50.1339725305
30
0.0
11
3.8196601125
21
-49.7979656977
31
0.0
0
LINE
5
300
100
AcDbEntity
100
AcDbLine
8
3
62
256
370
-1
6
ByLayer
10
3.8196601125
20
-49.7979656977
30
0.0
11
4.88588326219
21
-49.4360483079
31
0.0
0
LINE
5
301
100
AcDbEntity
100
AcDbLine
8
3
62
256
370
-1
6
ByLayer
10
4.88588326219
20
-49.4360483079
30
0.0
11
5.93546769045
21
-49.0488531222
31
0.0
0
LINE
5
302
100
AcDbEntity
100
AcDbLine
8
3
62
256
370
-1
6
ByLayer
10
5.93546769045
20
-49.0488531222
30
0.0
11
6.96774627159
21
-48.6370330516
31
0.0
0
LINE
5
303
100
AcDbEntity
100
AcDbLine
8
3
62
256
370
-1
6
ByLayer
10
6.96774627159
20
-48.6370330516
30
0.0
11
7.98207603319
21
-48.2012603068
31
0.0
0
LINE
5
304
100
AcDbEntity
100
AcDbLine
8
3
62
256
370
-1
6
ByLayer
10
7.98207603319
20
-48.2012603068
30
0.0
11
8.97783875223
21
-47.7422255272
31
0.0
0
LINE
5
305
100
AcDbEntity
100
AcDbLine
8
3
62
256
370
-1
6
ByLayer
10
8.97783875223
20
-47.7422255272
30
0.0
11
9.95444152014
21
-47.2606368909
31
0.0
0
LINE
5
306
100
AcDbEntity
100
AcDbLine
8
3
62
256
370
-1
6
ByLayer
10
9.95444152014
20
-47.2606368909
30
0.0
11
10.9113172763
21
-46.7572192062
31
0.0
0
LINE
5
307
100
AcDbEntity
100
AcDbLine
8
3
62
256
370
-1
6
ByLayer
10
10.9113172763
20
-46.7572192062
30
0.0
11
11.847925309
21
-46.232712987
31
0.0
0
LINE
5
308
100
AcDbEntity
100
AcDbLine
8
3
62
256
370
-1
6
ByLayer
10
11.847925309
20
-46.232712987
30
0.0
11
12.7637517243
21
-45.6878735113
31
0.0
0
LINE
5
309
100
AcDbEntity
100
AcDbLine
8
3
62
256
370
-1
6
ByLayer
10
12.7637517243
20
-45.6878735113
30
0.0
11
13.6583098804
21
-45.123469866
31
0.0
0
LINE
5
310
100
AcDbEntity
100
AcDbLine
8
3
62
256
370
-1
6
ByLayer
10
13.6583098804
20
-45.123469866
30
0.0
11
14.5311407893
21
-44.5402839776
31
0.0
0
LINE
5
311
100
AcDbEntity
100
AcDbLine
8
3
62
256
370
-1
6
ByLayer
10
14.5311407893
20
-44.5402839776
30
0.0
11
15.381813484
21
-43.9391096311
31
0.0
0
LINE
5
312
100
AcDbEntity
100
AcDbLine
8
3
62
256
370
-1
6
ByLayer
10
15.381813484
20
-43.9391096311
30
0.0
11
16.2099253503
21
-43.320751477
31
0.0
0
LINE
5
313
100
AcDbEntity
100
AcDbLine
8
3
62
256
370
-1
6
ByLayer
10
16.2099253503
20
-43.320751477
30
0.0
11
17.0151024251
21
-42.6860240296
31
0.0
0
LINE
5
314
100
AcDbEntity
100
AcDbLine
8
3
62
256
370
-1
6
ByLayer
10
17.0151024251
20
-42.6860240296
30
0.0
11
17.7969996576
21
-42.0357506555
31
0.0
0
LINE
5
315
100
AcDbEntity
100
AcDbLine
8
3
62
256
370
-1
6
ByLayer
10
17.7969996576
20
-42.0357506555
30
0.0
11
18.5553011371
21
-41.3707625556
31
0.0
0
LINE
5
316
100
AcDbEntity
100
AcDbLine
8
3
62
256
370
-1
6
ByLayer
10
18.5553011371
20
-41.3707625556
30
0.0
11
19.2897202829
21
-40.6918977403
31
0.0
0
LINE
5
317
100
AcDbEntity
100
AcDbLine
8
3
62
256
370
-1
6
ByLayer
10
19.2897202829
20
-40.6918977403
30
0.0
11
20.0
21
-40.0
31
0.0
0
LINE
5
318
100
AcDbEntity
100
AcDbLine
8
3
62
256
370
-1
6
ByLayer
10
20.0
20
-40.0
30
0.0
11
20.6859127979
21
-39.2959178722
31
0.0
0
LINE
5
319
100
AcDbEntity
100
AcDbLine
8
3
62
256
370
-1
6
ByLayer
10
20.6859127979
20
-39.2959178722
30
0.0
11
21.3472608733
21
-38.5805036059
31
0.0
0
LINE
5
320
100
AcDbEntity
100
AcDbLine
8
3
62
256
370
-1
6
ByLayer
10
21.3472608733
20
-38.5805036059
30
0.0
11
21.9838761571
21
-37.8546121248
31
0.0
0
LINE
5
321
100
AcDbEntity
100
AcDbLine
8
3
62
256
370
-1
6
ByLayer
10
21.9838761571
20
-37.8546121248
30
0.0
11
22.5956203246
21
-37.1190999912
31
0.0
0
LINE
5
322
100
AcDbEntity
100
AcDbLine
8
3
62
256
370
-1
6
ByLayer
10
22.5956203246
20
-37.1190999912
30
0.0
11
23.1823847702
21
-36.3748243703
31
0.0
0
LINE
5
323
100
AcDbEntity
100
AcDbLine
8
3
62
256
370
-1
6
ByLayer
10
23.1823847702
20
-36.3748243703
30
0.0
11
23.7440905454
21
-35.6226419984
31
0.0
0
LINE
5
324
100
AcDbEntity
100
AcDbLine
8
3
62
256
370
-1
6
ByLayer
10
23.7440905454
20
-35.6226419984
30
0.0
11
24.2806882617
21
-34.8634081537
31
0.0
0
LINE
5
325
100
AcDbEntity
100
AcDbLine
8
3
62
256
370
-1
6
ByLayer
10
24.2806882617
20
-34.8634081537
30
0.0
11
24.7921579572
21
-34.0979756333
31
0.0
0
LINE
5
326
100
AcDbEntity
100
AcDbLine
8
3
62
256
370
-1
6
ByLayer
10
24.7921579572
20
-34.0979756333
30
0.0
11
25.2785089275
21
-33.3271937363
31
0.0
0
LINE
5
327
100
AcDbEntity
100
AcDbLine
8
3
62
256
370
-1
6
ByLayer
10
25.2785089275
20
-33.3271937363
30
0.0
11
25.7397795224
21
-32.551907254
31
0.0
0
LINE
5
328
100
AcDbEntity
100
AcDbLine
8
3
62
256
370
-1
6
ByLayer
10
25.7397795224
20
-32.551907254
30
0.0
11
26.1760369064
21
-31.7729554696
31
0.0
0
LINE
5
329
100
AcDbEntity
100
AcDbLine
8
3
62
256
370
-1
6
ByLayer
10
26.1760369064
20
-31.7729554696
30
0.0
11
26.5873767856
21
-30.9911711678
31
0.0
0
LINE
5
330
100
AcDbEntity
100
AcDbLine
8
3
62
256
370
-1
6
ByLayer
10
26.5873767856
20
-30.9911711678
30
0.0
11
26.9739230997
21
-30.2073796556
31
0.0
0
LINE
5
331
100
AcDbEntity
100
AcDbLine
8
3
62
256
370
-1
6
ByLayer
10
26.9739230997
20
-30.2073796556
30
0.0
11
27.3358276812
21
-29.4223977953
31
0.0
0
LINE
5
332
100
AcDbEntity
100
AcDbLine
8
3
62
256
370
-1
6
ByLayer
10
27.3358276812
20
-29.4223977953
30
0.0
11
27.6732698798
21
-28.6370330516
31
0.0
0
LINE
5
333
100
AcDbEntity
100
AcDbLine
8
3
62
256
370
-1
6
ByLayer
10
27.6732698798
20
-28.6370330516
30
0.0
11
27.9864561558
21
-27.8520825529
31
0.0
0
LINE
5
334
100
AcDbEntity
100
AcDbLine
8
3
62
256
370
-1
6
ByLayer
10
27.9864561558
20
-27.8520825529
30
0.0
11
28.27561964
21
-27.0683321691
31
0.0
0
LINE
5
335
100
AcDbEntity
100
AcDbLine
8
3
62
256
370
-1
6
ByLayer
10
28.27561964
20
-27.0683321691
30
0.0
11
28.5410196625
21
-26.286555606
31
0.0
0
LINE
5
336
100
AcDbEntity
100
AcDbLine
8
3
62
256
370
-1
6
ByLayer
10
28.5410196625
20
-26.286555606
30
0.0
11
28.7829412504
21
-25.5075135175
31
0.0
0
LINE
5
337
100
AcDbEntity
100
AcDbLine
8
3
62
256
370
-1
6
ByLayer
10
28.7829412504
20
-25.5075135175
30
0.0
11
29.0016945954
21
-24.7319526377
31
0.0
0
LINE
5
338
100
AcDbEntity
100
AcDbLine
8
3
62
256
370
-1
6
ByLayer
10
29.0016945954
20
-24.7319526377
30
0.0
11
29.1976144914
21
-23.9606049327
31
0.0
0
LINE
5
339
100
AcDbEntity
100
AcDbLine
8
3
62
256
370
-1
6
ByLayer
10
29.1976144914
20
-23.9606049327
30
0.0
11
29.3710597434
21
-23.1941867735
31
0.0
0
LINE
5
340
100
AcDbEntity
100
AcDbLine
8
3
62
256
370
-1
6
ByLayer
10
29.3710597434
20
-23.1941867735
30
0.0
11
29.5224125488
21
-22.4333981313
31
0.0
0
LINE
5
341
100
AcDbEntity
100
AcDbLine
8
3
62
256
370
-1
6
ByLayer
10
29.5224125488
20
-22.4333981313
30
0.0
11
29.6520778502
21
-21.6789217962
31
0.0
0
LINE
5
342
100
AcDbEntity
100
AcDbLine
8
3
62
256
370
-1
6
ByLayer
10
29.6520778502
20
-21.6789217962
30
0.0
11
29.7604826634
21
-20.9314226191
31
0.0
0
LINE
5
343
100
AcDbEntity
100
AcDbLine
8
3
62
256
370
-1
6
ByLayer
10
29.7604826634
20
-20.9314226191
30
0.0
11
29.8480753781
21
-20.1915467798
31
0.0
0
LINE
5
344
100
AcDbEntity
100
AcDbLine
8
3
62
256
370
-1
6
ByLayer
10
29.8480753781
20
-20.1915467798
30
0.0
11
29.9153250354
21
-19.45992108
31
0.0
0
LINE
5
345
100
AcDbEntity
100
AcDbLine
8
3
62
256
370
-1
6
ByLayer
10
29.9153250354
20
-19.45992108
30
0.0
11
29.9627205809
21
-18.7371522633
31
0.0
0
LINE
5
346
100
AcDbEntity
100
AcDbLine
8
3
62
256
370
-1
6
ByLayer
10
29.9627205809
20
-18.7371522633
30
0.0
11
29.9907700945
21
-18.0238263624
31
0.0
0
LINE
5
347
100
AcDbEntity
100
AcDbLine
8
3
62
256
370
-1
6
ByLayer
10
29.9907700945
20
-18.0238263624
30
0.0
11
30.0
21
-17.3205080757
31
0.0
0
LINE
5
348
100
AcDbEntity
100
AcDbLine
8
3
62
256
370
-1
6
ByLayer
10
30.0
20
-17.3205080757
30
0.0
11
29.9909542521
21
-16.6277401709
31
0.0
0
LINE
5
349
100
AcDbEntity
100
AcDbLine
8
3
62
256
370
-1
6
ByLayer
10
29.9909542521
20
-16.6277401709
30
0.0
11
29.9641935051
21
-15.9460429203
31
0.0
0
LINE
5
350
100
AcDbEntity
100
AcDbLine
8
3
62
256
370
-1
6
ByLayer
10
29.9641935051
20
-15.9460429203
30
0.0
11
29.9202942621
21
-15.275913565
31
0.0
0
LINE
5
351
100
AcDbEntity
100
AcDbLine
8
3
62
256
370
-1
6
ByLayer
10
29.9202942621
20
-15.275913565
30
0.0
11
29.8598480071
21
-14.6178258109
31
0.0
0
LINE
5
352
100
AcDbEntity
100
AcDbLine
8
3
62
256
370
-1
6
ByLayer
10
29.8598480071
20
-14.6178258109
30
0.0
11
29.7834603206
21
-13.9722293558
31
0.0
0
LINE
5
353
100
AcDbEntity
100
AcDbLine
8
3
62
256
370
-1
6
ByLayer
10
29.7834603206
20
-13.9722293558
30
0.0
11
29.6917499792
21
-13.3395494491
31
0.0
0
LINE
5
354
100
AcDbEntity
100
AcDbLine
8
3
62
256
370
-1
6
ByLayer
10
29.6917499792
20
-13.3395494491
30
0.0
11
29.5853480424
21
-12.7201864831
31
0.0
0
LINE
5
355
100
AcDbEntity
100
AcDbLine
8
3
62
256
370
-1
6
ByLayer
10
29.5853480424
20
-12.7201864831
30
0.0
11
29.464896925
21
-12.1145156187
31
0.0
0
LINE
5
356
100
AcDbEntity
100
AcDbLine
8
3
62
256
370
-1
6
ByLayer
10
29.464896925
20
-12.1145156187
30
0.0
11
29.3310494583
21
-11.5228864436
31
0.0
0
LINE
5
357
100
AcDbEntity
100
AcDbLine
8
3
62
256
370
-1
6
ByLayer
10
29.3310494583
20
-11.5228864436
30
0.0
11
29.1844679408
21
-10.9456226645
31
0.0
0
LINE
5
358
100
AcDbEntity
100
AcDbLine
8
3
62
256
370
-1
6
ByLayer
10
29.1844679408
20
-10.9456226645
30
0.0
11
29.0258231788
21
-10.3830218341
31
0.0
0
LINE
5
359
100
AcDbEntity
100
AcDbLine
8
3
62
256
370
-1
6
ByLayer
10
29.0258231788
20
-10.3830218341
30
0.0
11
28.8557935197
21
-9.83535511173
31
0.0
0
LINE
5
360
100
AcDbEntity
100
AcDbLine
8
3
62
256
370
-1
6
ByLayer
10
28.8557935197
20
-9.83535511173
30
0.0
11
28.6750638774
21
-9.30286705957
31
0.0
0
LINE
5
361
100
AcDbEntity
100
AcDbLine
8
3
62
256
370
-1
6
ByLayer
10
28.6750638774
20
-9.30286705957
30
0.0
11
28.4843247524
21
-8.78577547316
31
0.0
0
LINE
5
362
100
AcDbEntity
100
AcDbLine
8
3
62
256
370
-1
6
ByLayer
10
28.4843247524
20
-8.78577547316
30
0.0
11
28.2842712475
21
-8.28427124746
31
0.0
0
LINE
5
363
100
AcDbEntity
100
AcDbLine
8
3
62
256
370
-1
6
ByLayer
10
28.2842712475
20
-8.28427124746
30
0.0
11
28.0756020795
21
-7.79851827798
31
0.0
0
LINE
5
364
100
AcDbEntity
100
AcDbLine
8
3
62
256
370
-1
6
ByLayer
10
28.0756020795
20
-7.79851827798
30
0.0
11
27.8590185899
21
-7.3286533973
31
0.0
0
LINE
5
365
100
AcDbEntity
100
AcDbLine
8
3
62
256
370
-1
6
ByLayer
10
27.8590185899
20
-7.3286533973
30
0.0
11
27.6352237537
21
-6.87478634699
31
0.0
0
LINE
5
366
100
AcDbEntity
100
AcDbLine
8
3
62
256
370
-1
6
ByLayer
10
27.6352237537
20
-6.87478634699
30
0.0
11
27.4049211897
21
-6.43699978479
31
0.0
0
LINE
5
367
100
AcDbEntity
100
AcDbLine
8
3
62
256
370
-1
6
ByLayer
10
27.4049211897
20
-6.43699978479
30
0.0
11
27.1688141714
21
-6.01534932722
31
0.0
0
LINE
5
368
100
AcDbEntity
100
AcDbLine
8
3
62
256
370
-1
6
ByLayer
10
27.1688141714
20
-6.01534932722
30
0.0
11
26.9276046419
21
-5.60986362732
31
0.0
0
LINE
5
369
100
AcDbEntity
100
AcDbLine
8
3
62
256
370
-1
6
ByLayer
10
26.9276046419
20
-5.60986362732
30
0.0
11
26.6819922323
21
-5.22054448751
31
0.0
0
LINE
5
370
100
AcDbEntity
100
AcDbLine
8
3
62
256
370
-1
6
ByLayer
10
26.6819922323
20
-5.22054448751
30
0.0
11
26.4326732856
21
-4.84736700732
31
0.0
0
LINE
5
371
100
AcDbEntity
100
AcDbLine
8
3
62
256
370
-1
6
ByLayer
10
26.4326732856
20
-4.84736700732
30
0.0
11
26.1803398875
21
-4.4902797658
31
0.0
0
LINE
5
372
100
AcDbEntity
100
AcDbLine
8
3
62
256
370
-1
6
ByLayer
10
26.1803398875
20
-4.4902797658
30
0.0
11
25.925678905
21
-4.14920503832
31
0.0
0
LINE
5
373
100
AcDbEntity
100
AcDbLine
8
3
62
256
370
-1
6
ByLayer
10
25.925678905
20
-4.14920503832
30
0.0
11
25.6693710339
21
-3.82403904749
31
0.0
0
LINE
5
374
100
AcDbEntity
100
AcDbLine
8
3
62
256
370
-1
6
ByLayer
10
25.6693710339
20
-3.82403904749
30
0.0
11
25.4120898563
21
-3.51465224775
31
0.0
0
LINE
5
375
100
AcDbEntity
100
AcDbLine
8
3
62
256
370
-1
6
ByLayer
10
25.4120898563
20
-3.51465224775
30
0.0
11
25.1545009105
21
-3.22088964334
31
0.0
0
LINE
5
376
100
AcDbEntity
100
AcDbLine
8
3
62
256
370
-1
6
ByLayer
10
25.1545009105
20
-3.22088964334
30
0.0
11
24.8972607724
21
-2.94257113922
31
0.0
0
LINE
5
377
100
AcDbEntity
100
AcDbLine
8
3
62
256
370
-1
6
ByLayer
10
24.8972607724
20
-2.94257113922
30
0.0
11
24.6410161514
21
-2.67949192431
31
0.0
0
LINE
5
378
100
AcDbEntity
100
AcDbLine
8
3
62
256
370
-1
6
ByLayer
10
24.6410161514
20
-2.67949192431
30
0.0
11
24.3864030009
21
-2.43142288672
31
0.0
0
LINE
5
379
100
AcDbEntity
100
AcDbLine
8
3
62
256
370
-1
6
ByLayer
10
24.3864030009
20
-2.43142288672
30
0.0
11
24.1340456449
21
-2.19811106033
31
0.0
0
LINE
5
380
100
AcDbEntity
100
AcDbLine
8
3
62
256
370
-1
6
ByLayer
10
24.1340456449
20
-2.19811106033
30
0.0
11
23.8845559217
21
-1.97928010208
31
0.0
0
LINE
5
381
100
AcDbEntity
100
AcDbLine
8
3
62
256
370
-1
6
ByLayer
10
23.8845559217
20
-1.97928010208
30
0.0
11
23.6385323455
21
-1.77463079943
31
0.0
0
LINE
5
382
100
AcDbEntity
100
AcDbLine
8
3
62
256
370
-1
6
ByLayer
10
23.6385323455
20
-1.77463079943
30
0.0
11
23.3965592877
21
-1.58384160725
31
0.0
0
LINE
5
383
100
AcDbEntity
100
AcDbLine
8
3
62
256
370
-1
6
ByLayer
10
23.3965592877
20
-1.58384160725
30
0.0
11
23.1592061785
21
-1.40656921348
31
0.0
0
LINE
5
384
100
AcDbEntity
100
AcDbLine
8
3
62
256
370
-1
6
ByLayer
10
23.1592061785
20
-1.40656921348
30
0.0
11
22.9270267289
21
-1.2424491328
31
0.0
0
LINE
5
385
100
AcDbEntity
100
AcDbLine
8
3
62
256
370
-1
6
ByLayer
10
22.9270267289
20
-1.2424491328
30
0.0
11
22.7005581759
21
-1.09109632746
31
0.0
0
LINE
5
386
100
AcDbEntity
100
AcDbLine
8
3
62
256
370
-1
6
ByLayer
10
22.7005581759
20
-1.09109632746
30
0.0
11
22.4803205503
21
-0.952105854635
31
0.0
0
LINE
5
387
100
AcDbEntity
100
AcDbLine
8
3
62
256
370
-1
6
ByLayer
10
22.4803205503
20
-0.952105854635
30
0.0
11
22.2668159691
21
-0.825053539296
31
0.0
0
LINE
5
388
100
AcDbEntity
100
AcDbLine
8
3
62
256
370
-1
6
ByLayer
10
22.2668159691
20
-0.825053539296
30
0.0
11
22.0605279518
21
-0.709496671773
31
0.0
0
LINE
5
389
100
AcDbEntity
100
AcDbLine
8
3
62
256
370
-1
6
ByLayer
10
22.0605279518
20
-0.709496671773
30
0.0
11
21.8619207643
21
-0.604974729148
31
0.0
0
LINE
5
390
100
AcDbEntity
100
AcDbLine
8
3
62
256
370
-1
6
ByLayer
10
21.8619207643
20
-0.604974729148
30
0.0
11
21.6714387874
21
-0.511010119495
31
0.0
0
LINE
5
391
100
AcDbEntity
100
AcDbLine
8
3
62
256
370
-1
6
ByLayer
10
21.6714387874
20
-0.511010119495
30
0.0
11
21.4895059144
21
-0.427108948016
31
0.0
0
LINE
5
392
100
AcDbEntity
100
AcDbLine
8
3
62
256
370
-1
6
ByLayer
10
21.4895059144
20
-0.427108948016
30
0.0
11
21.3165249759
21
-0.352761804101
31
0.0
0
LINE
5
393
100
AcDbEntity
100
AcDbLine
8
3
62
256
370
-1
6
ByLayer
10
21.3165249759
20
-0.352761804101
30
0.0
11
21.1528771939
21
-0.287444568269
31
0.0
0
LINE
5
394
100
AcDbEntity
100
AcDbLine
8
3
62
256
370
-1
6
ByLayer
10
21.1528771939
20
-0.287444568269
30
0.0
11
20.9989216654
21
-0.230619237973
31
0.0
0
LINE
5
395
100
AcDbEntity
100
AcDbLine
8
3
62
256
370
-1
6
ByLayer
10
20.9989216654
20
-0.230619237973
30
0.0
11
20.8549948765
21
-0.181734771194
31
0.0
0
LINE
5
396
100
AcDbEntity
100
AcDbLine
8
3
62
256
370
-1
6
ByLayer
10
20.8549948765
20
-0.181734771194
30
0.0
11
20.7214102466
21
-0.140227946744
31
0.0
0
LINE
5
397
100
AcDbEntity
100
AcDbLine
8
3
62
256
370
-1
6
ByLayer
10
20.7214102466
20
-0.140227946744
30
0.0
11
20.5984577048
21
-0.105524240164
31
0.0
0
LINE
5
398
100
AcDbEntity
100
AcDbLine
8
3
62
256
370
-1
6
ByLayer
10
20.5984577048
20
-0.105524240164
30
0.0
11
20.4864032979
21
-0.0770387141103
31
0.0
0
LINE
5
399
100
AcDbEntity
100
AcDbLine
8
3
62
256
370
-1
6
ByLayer
10
20.4864032979
20
-0.0770387141103
30
0.0
11
20.3854888309
21
-0.0541769220626
31
0.0
0
LINE
5
400
100
AcDbEntity
100
AcDbLine
8
3
62
256
370
-1
6
ByLayer
10
20.3854888309
20
-0.0541769220626
30
0.0
11
20.2959315401
21
-0.0363358242125
31
0.0
0
LINE
5
401
100
AcDbEntity
100
AcDbLine
8
3
62
256
370
-1
6
ByLayer
10
20.2959315401
20
-0.0363358242125
30
0.0
11
20.2179238001
21
-0.022904714351
31
0.0
0
LINE
5
402
100
AcDbEntity
100
AcDbLine
8
3
62
256
370
-1
6
ByLayer
10
20.2179238001
20
-0.022904714351
30
0.0
11
20.1516328634
21
-0.0132661565677
31
0.0
0
LINE
5
403
100
AcDbEntity
100
AcDbLine
8
3
62
256
370
-1
6
ByLayer
10
20.1516328634
20
-0.0132661565677
30
0.0
11
20.0972006356
21
-0.0067969305637
31
0.0
0
LINE
5
404
100
AcDbEntity
100
AcDbLine
8
3
62
256
370
-1
6
ByLayer
10
20.0972006356
20
-0.0067969305637
30
0.0
11
20.0547434828
21
-0.00286898436468
31
0.0
0
LINE
5
405
100
AcDbEntity
100
AcDbLine
8
3
62
256
370
-1
6
ByLayer
10
20.0547434828
20
-0.00286898436468
30
0.0
11
20.0243520756
21
-0.000850393217533
31
0.0
0
LINE
5
406
100
AcDbEntity
100
AcDbLine
8
3
62
256
370
-1
6
ByLayer
10
20.0243520756
20
-0.000850393217533
30
0.0
11
20.0060912659
21
-0.000106323441321
31
0.0
0
MTEXT
5
407
100
AcDbEntity
100
AcDbMText
8
3
62
256
370
-1
6
ByLayer
10
-15.0
20
-56.9615242271
30
0.0
40
3
41
100.0
71
8
72
0
1
Cardioid
7
normallatin1
50
0.0
73
1
44
1.0
0
ENDSEC
  0
SECTION
  2
OBJECTS
  0
DICTIONARY
  5
C
100
AcDbDictionary
280
0
281
1
  3
ACAD_GROUP
350
D
  3
ACAD_LAYOUT
350
1A
  3
ACAD_MLINESTYLE
350
17
  3
ACAD_PLOTSETTINGS
350
19
  3
ACAD_PLOTSTYLENAME
350
E
  3
AcDbVariableDictionary
350
48
  0
DICTIONARY
  5
D
100
AcDbDictionary
280
0
281
1
  0
ACDBDICTIONARYWDFLT
  5
E
100
AcDbDictionary
281
1
  3
Normal
350
F
100
AcDbDictionaryWithDefault
340
F
  0
ACDBPLACEHOLDER
  5
F
  0
DICTIONARY
  5
17
100
AcDbDictionary
280
0
281
1
  3
Standard
350
18
  0
MLINESTYLE
  5
18
100
AcDbMlineStyle
  2
STANDARD
 70
0
  3

 62
256
 51
90.0
 52
90.0
 71
2
 49
0.5
 62
256
  6
BYLAYER
 49
-0.5
 62
256
  6
BYLAYER
  0
DICTIONARY
  5
19
100
AcDbDictionary
280
0
281
1
  0
DICTIONARY
  5
1A
100
AcDbDictionary
281
1
  3
Layout1
350
1E
  3
Layout2
350
26
  3
Model
350
22
  0
LAYOUT
  5
1E
100
AcDbPlotSettings
  1

  2
C:\Program Files\AutoCAD 2002\plotters\DWF ePlot (optimized for plotting).pc3
  4

  6

 40
0.0
 41
0.0
 42
0.0
 43
0.0
 44
0.0
 45
0.0
 46
0.0
 47
0.0
 48
0.0
 49
0.0
140
0.0
141
0.0
142
1.0
143
1.0
 70
688
 72
0
 73
0
 74
5
  7

 75
16
147
1.0
148
0.0
149
0.0
100
AcDbLayout
  1
Layout1
 70
1
 71
1
 10
0.0
 20
0.0
 11
420.0
 21
297.0
 12
0.0
 22
0.0
 32
0.0
 14
100000000000000000000.0
 24
100000000000000000000.0
 34
100000000000000000000.0
 15
-100000000000000000000.0
 25
-100000000000000000000.0
 35
-100000000000000000000.0
146
0.0
 13
0.0
 23
0.0
 33
0.0
 16
1.0
 26
0.0
 36
0.0
 17
0.0
 27
1.0
 37
0.0
 76
0
330
1B
  0
LAYOUT
  5
22
100
AcDbPlotSettings
  1

  2
C:\Program Files\AutoCAD 2002\plotters\DWF ePlot (optimized for plotting).pc3
  4

  6

 40
0.0
 41
0.0
 42
0.0
 43
0.0
 44
0.0
 45
0.0
 46
0.0
 47
0.0
 48
0.0
 49
0.0
140
0.0
141
0.0
142
1.0
143
1.0
 70
1712
 72
0
 73
0
 74
0
  7

 75
0
147
1.0
148
0.0
149
0.0
100
AcDbLayout
  1
Model
 70
1
 71
0
 10
0.0
 20
0.0
 11
12.0
 21
9.0
 12
0.0
 22
0.0
 32
0.0
 14
0.0
 24
0.0
 34
0.0
 15
0.0
 25
0.0
 35
0.0
146
0.0
 13
0.0
 23
0.0
 33
0.0
 16
1.0
 26
0.0
 36
0.0
 17
0.0
 27
1.0
 37
0.0
 76
0
330
1F
  0
LAYOUT
  5
26
100
AcDbPlotSettings
  1

  2
C:\Program Files\AutoCAD 2002\plotters\DWF ePlot (optimized for plotting).pc3
  4

  6

 40
0.0
 41
0.0
 42
0.0
 43
0.0
 44
0.0
 45
0.0
 46
0.0
 47
0.0
 48
0.0
 49
0.0
140
0.0
141
0.0
142
1.0
143
1.0
 70
688
 72
0
 73
0
 74
5
  7

 75
16
147
1.0
148
0.0
149
0.0
100
AcDbLayout
  1
Layout2
 70
1
 71
2
 10
0.0
 20
0.0
 11
12.0
 21
9.0
 12
0.0
 22
0.0
 32
0.0
 14
0.0
 24
0.0
 34
0.0
 15
0.0
 25
0.0
 35
0.0
146
0.0
 13
0.0
 23
0.0
 33
0.0
 16
1.0
 26
0.0
 36
0.0
 17
0.0
 27
1.0
 37
0.0
 76
0
330
23
  0
DICTIONARY
  5
48
100
AcDbDictionary
281
1
  3
DIMASSOC
350
4A
  3
HIDETEXT
350
49
  0
DICTIONARYVAR
  5
49
100
DictionaryVariables
280
0
  1
2
  0
DICTIONARYVAR
  5
4A
100
DictionaryVariables
280
0
  1
1
  0
ENDSEC
  0
EOF
