999
dxflib 2.0.4.8
  0
SECTION
  2
HEADER
  9
$ACADVER
  1
AC1015
  9
$HANDSEED
  5
FFFF
  9
$DIMASZ
 40
2.5
  9
$DIMGAP
 40
0.625
  9
$DIMEXO
 40
0.625
  9
$INSUNITS
 70
4
  9
$DIMTXT
 40
2.5
  9
$PLIMMAX
 10
210.0
 20
297.0
  9
$PLIMMIN
 10
0.0
 20
0.0
  9
$DIMEXE
 40
1.25
  0
ENDSEC
  0
SECTION
  2
TABLES
  0
TABLE
  2
VPORT
  5
8
100
AcDbSymbolTable
 70
1
  0
VPORT
  5
30
100
AcDbSymbolTableRecord
100
AcDbViewportTableRecord
  2
*Active
 70
0
 10
0.0
 20
0.0
 11
1.0
 21
1.0
 12
286.3055555555554861
 22
148.5
 13
0.0
 23
0.0
 14
10.0
 24
10.0
 15
10.0
 25
10.0
 16
0.0
 26
0.0
 36
1.0
 17
0.0
 27
0.0
 37
0.0
 40
297.0
 41
1.92798353909465
 42
50.0
 43
0.0
 44
0.0
 50
0.0
 51
0.0
 71
0
 72
100
 73
1
 74
3
 75
1
 76
1
 77
0
 78
0
281
0
 65
1
110
0.0
120
0.0
130
0.0
111
1.0
121
0.0
131
0.0
112
0.0
122
1.0
132
0.0
 79
0
146
0.0
  0
ENDTAB
  0
TABLE
  2
LTYPE
  5
5
100
AcDbSymbolTable
 70
21
  0
LTYPE
  5
14
100
AcDbSymbolTableRecord
100
AcDbLinetypeTableRecord
  2
ByBlock
 70
0
  3

 72
65
 73
0
 40
0.0
  0
LTYPE
  5
15
100
AcDbSymbolTableRecord
100
AcDbLinetypeTableRecord
  2
ByLayer
 70
0
  3

 72
65
 73
0
 40
0.0
  0
LTYPE
  5
16
100
AcDbSymbolTableRecord
100
AcDbLinetypeTableRecord
  2
CONTINUOUS
 70
0
  3
Solid line
 72
65
 73
0
 40
0.0
  0
LTYPE
  5
31
100
AcDbSymbolTableRecord
100
AcDbLinetypeTableRecord
  2
DOT
 70
0
  3
Dot . . . . . . . . . . . . . . . . . . . . . .
 72
65
 73
2
 40
6.3499999999999996
 49
0.0
 74
0
 49
-6.3499999999999996
 74
0
  0
LTYPE
  5
32
100
AcDbSymbolTableRecord
100
AcDbLinetypeTableRecord
  2
DOT2
 70
0
  3
Dot (.5x) .....................................
 72
65
 73
2
 40
3.1749999999999998
 49
0.0
 74
0
 49
-3.1749999999999998
 74
0
  0
LTYPE
  5
33
100
AcDbSymbolTableRecord
100
AcDbLinetypeTableRecord
  2
DOTX2
 70
0
  3
Dot (2x) .  .  .  .  .  .  .  .  .  .  .  .  .
 72
65
 73
2
 40
12.6999999999999993
 49
0.0
 74
0
 49
-12.6999999999999993
 74
0
  0
LTYPE
  5
34
100
AcDbSymbolTableRecord
100
AcDbLinetypeTableRecord
  2
DASHED
 70
0
  3
Dashed __ __ __ __ __ __ __ __ __ __ __ __ __ _
 72
65
 73
2
 40
19.0500000000000007
 49
12.6999999999999993
 74
0
 49
-6.3499999999999996
 74
0
  0
LTYPE
  5
35
100
AcDbSymbolTableRecord
100
AcDbLinetypeTableRecord
  2
DASHED2
 70
0
  3
Dashed (.5x) _ _ _ _ _ _ _ _ _ _ _ _ _ _ _ _ _
 72
65
 73
2
 40
9.5250000000000004
 49
6.3499999999999996
 74
0
 49
-3.1749999999999998
 74
0
  0
LTYPE
  5
36
100
AcDbSymbolTableRecord
100
AcDbLinetypeTableRecord
  2
DASHEDX2
 70
0
  3
Dashed (2x) ____  ____  ____  ____  ____  ___
 72
65
 73
2
 40
38.1000000000000014
 49
25.3999999999999986
 74
0
 49
-12.6999999999999993
 74
0
  0
LTYPE
  5
37
100
AcDbSymbolTableRecord
100
AcDbLinetypeTableRecord
  2
DASHDOT
 70
0
  3
Dash dot __ . __ . __ . __ . __ . __ . __ . __
 72
65
 73
4
 40
25.3999999999999986
 49
12.6999999999999993
 74
0
 49
-6.3499999999999996
 74
0
 49
0.0
 74
0
 49
-6.3499999999999996
 74
0
  0
LTYPE
  5
38
100
AcDbSymbolTableRecord
100
AcDbLinetypeTableRecord
  2
DASHDOT2
 70
0
  3
Dash dot (.5x) _._._._._._._._._._._._._._._.
 72
65
 73
4
 40
12.6999999999999993
 49
6.3499999999999996
 74
0
 49
-3.1749999999999998
 74
0
 49
0.0
 74
0
 49
-3.1749999999999998
 74
0
  0
LTYPE
  5
39
100
AcDbSymbolTableRecord
100
AcDbLinetypeTableRecord
  2
DASHDOTX2
 70
0
  3
Dash dot (2x) ____  .  ____  .  ____  .  ___
 72
65
 73
4
 40
50.7999999999999972
 49
25.3999999999999986
 74
0
 49
-12.6999999999999993
 74
0
 49
0.0
 74
0
 49
-12.6999999999999993
 74
0
  0
LTYPE
  5
3A
100
AcDbSymbolTableRecord
100
AcDbLinetypeTableRecord
  2
DIVIDE
 70
0
  3
Divide ____ . . ____ . . ____ . . ____ . . ____
 72
65
 73
6
 40
31.75
 49
12.6999999999999993
 74
0
 49
-6.3499999999999996
 74
0
 49
0.0
 74
0
 49
-6.3499999999999996
 74
0
 49
0.0
 74
0
 49
-6.3499999999999996
 74
0
  0
LTYPE
  5
3B
100
AcDbSymbolTableRecord
100
AcDbLinetypeTableRecord
  2
DIVIDE2
 70
0
  3
Divide (.5x) __..__..__..__..__..__..__..__.._
 72
65
 73
6
 40
15.875
 49
6.3499999999999996
 74
0
 49
-3.1749999999999998
 74
0
 49
0.0
 74
0
 49
-3.1749999999999998
 74
0
 49
0.0
 74
0
 49
-3.1749999999999998
 74
0
  0
LTYPE
  5
3C
100
AcDbSymbolTableRecord
100
AcDbLinetypeTableRecord
  2
DIVIDEX2
 70
0
  3
Divide (2x) ________  .  .  ________  .  .  _
 72
65
 73
6
 40
63.5
 49
25.3999999999999986
 74
0
 49
-12.6999999999999993
 74
0
 49
0.0
 74
0
 49
-12.6999999999999993
 74
0
 49
0.0
 74
0
 49
-12.6999999999999993
 74
0
  0
LTYPE
  5
3D
100
AcDbSymbolTableRecord
100
AcDbLinetypeTableRecord
  2
CENTER
 70
0
  3
Center ____ _ ____ _ ____ _ ____ _ ____ _ ____
 72
65
 73
4
 40
50.7999999999999972
 49
31.75
 74
0
 49
-6.3499999999999996
 74
0
 49
6.3499999999999996
 74
0
 49
-6.3499999999999996
 74
0
  0
LTYPE
  5
3E
100
AcDbSymbolTableRecord
100
AcDbLinetypeTableRecord
  2
CENTER2
 70
0
  3
Center (.5x) ___ _ ___ _ ___ _ ___ _ ___ _ ___
 72
65
 73
4
 40
28.5749999999999993
 49
19.0500000000000007
 74
0
 49
-3.1749999999999998
 74
0
 49
3.1749999999999998
 74
0
 49
-3.1749999999999998
 74
0
  0
LTYPE
  5
3F
100
AcDbSymbolTableRecord
100
AcDbLinetypeTableRecord
  2
CENTERX2
 70
0
  3
Center (2x) ________  __  ________  __  _____
 72
65
 73
4
 40
101.5999999999999943
 49
63.5
 74
0
 49
-12.6999999999999993
 74
0
 49
12.6999999999999993
 74
0
 49
-12.6999999999999993
 74
0
  0
LTYPE
  5
40
100
AcDbSymbolTableRecord
100
AcDbLinetypeTableRecord
  2
BORDER
 70
0
  3
Border __ __ . __ __ . __ __ . __ __ . __ __ .
 72
65
 73
6
 40
44.4500000000000028
 49
12.6999999999999993
 74
0
 49
-6.3499999999999996
 74
0
 49
12.6999999999999993
 74
0
 49
-6.3499999999999996
 74
0
 49
0.0
 74
0
 49
-6.3499999999999996
 74
0
  0
LTYPE
  5
41
100
AcDbSymbolTableRecord
100
AcDbLinetypeTableRecord
  2
BORDER2
 70
0
  3
Border (.5x) __.__.__.__.__.__.__.__.__.__.__.
 72
65
 73
6
 40
22.2250000000000014
 49
6.3499999999999996
 74
0
 49
-3.1749999999999998
 74
0
 49
6.3499999999999996
 74
0
 49
-3.1749999999999998
 74
0
 49
0.0
 74
0
 49
-3.1749999999999998
 74
0
  0
LTYPE
  5
42
100
AcDbSymbolTableRecord
100
AcDbLinetypeTableRecord
  2
BORDERX2
 70
0
  3
Border (2x) ____  ____  .  ____  ____  .  ___
 72
65
 73
6
 40
88.9000000000000057
 49
25.3999999999999986
 74
0
 49
-12.6999999999999993
 74
0
 49
25.3999999999999986
 74
0
 49
-12.6999999999999993
 74
0
 49
0.0
 74
0
 49
-12.6999999999999993
 74
0
  0
ENDTAB
  0
TABLE
  2
LAYER
  5
2
100
AcDbSymbolTable
 70
6
  0
LAYER
  5
10
100
AcDbSymbolTableRecord
100
AcDbLayerTableRecord
  2
0
 70
0
 62
7
  6
CONTINUOUS
370
0
390
F
  0
LAYER
  5
43
100
AcDbSymbolTableRecord
100
AcDbLayerTableRecord
  2
1
 70
0
 62
6
  6
CONTINUOUS
370
0
390
F
  0
LAYER
  5
44
100
AcDbSymbolTableRecord
100
AcDbLayerTableRecord
  2
2
 70
0
 62
2
  6
CONTINUOUS
370
0
390
F
  0
LAYER
  5
45
100
AcDbSymbolTableRecord
100
AcDbLayerTableRecord
  2
3
 70
0
 62
3
  6
CONTINUOUS
370
0
390
F
  0
LAYER
  5
46
100
AcDbSymbolTableRecord
100
AcDbLayerTableRecord
  2
4
 70
0
 62
1
  6
CONTINUOUS
370
0
390
F
  0
LAYER
  5
47
100
AcDbSymbolTableRecord
100
AcDbLayerTableRecord
  2
5
 70
0
 62
5
  6
CONTINUOUS
370
0
390
F
  0
ENDTAB
  0
TABLE
  2
STYLE
  5
3
100
AcDbSymbolTable
 70
1
  0
STYLE
  5
11
100
AcDbSymbolTableRecord
100
AcDbTextStyleTableRecord
  2
Standard
 70
0
 40
0.0
 41
0.75
 50
0.0
 71
0
 42
2.5
  3
txt
  4

  0
ENDTAB
  0
TABLE
  2
VIEW
  5
6
100
AcDbSymbolTable
 70
0
  0
ENDTAB
  0
TABLE
  2
UCS
  5
7
100
AcDbSymbolTable
 70
0
  0
ENDTAB
  0
TABLE
  2
APPID
  5
9
100
AcDbSymbolTable
 70
1
  0
APPID
  5
12
100
AcDbSymbolTableRecord
100
AcDbRegAppTableRecord
  2
ACAD
 70
0
  0
ENDTAB
  0
TABLE
  2
DIMSTYLE
  5
A
100
AcDbSymbolTable
 70
1
100
AcDbDimStyleTable
 71
0
  0
DIMSTYLE
105
27
100
AcDbSymbolTableRecord
100
AcDbDimStyleTableRecord
  2
Standard
 41
2.5
 42
0.625
 43
3.75
 44
1.25
 70
0
 73
0
 74
0
 77
1
 78
8
140
2.5
141
2.5
143
0.03937007874016
147
0.625
171
3
172
1
271
2
272
2
274
3
278
44
283
0
284
8
340
11
  0
ENDTAB
  0
TABLE
  2
BLOCK_RECORD
  5
1
100
AcDbSymbolTable
 70
1
  0
BLOCK_RECORD
  5
1F
100
AcDbSymbolTableRecord
100
AcDbBlockTableRecord
  2
*Model_Space
340
22
  0
BLOCK_RECORD
  5
1B
100
AcDbSymbolTableRecord
100
AcDbBlockTableRecord
  2
*Paper_Space
340
1E
  0
BLOCK_RECORD
  5
23
100
AcDbSymbolTableRecord
100
AcDbBlockTableRecord
  2
*Paper_Space0
340
26
  0
ENDTAB
  0
ENDSEC
  0
SECTION
  2
BLOCKS
  0
BLOCK
  5
20
100
AcDbEntity
  8
0
100
AcDbBlockBegin
  2
*Model_Space
 70
0
 10
0.0
 20
0.0
 30
0.0
  3
*Model_Space
  1

  0
ENDBLK
  5
21
100
AcDbEntity
  8
0
100
AcDbBlockEnd
  0
BLOCK
  5
1C
100
AcDbEntity
 67
1
  8
0
100
AcDbBlockBegin
  2
*Paper_Space
 70
0
 10
0.0
 20
0.0
 30
0.0
  3
*Paper_Space
  1

  0
ENDBLK
  5
1D
100
AcDbEntity
 67
1
  8
0
100
AcDbBlockEnd
  0
BLOCK
  5
24
100
AcDbEntity
  8
0
100
AcDbBlockBegin
  2
*Paper_Space0
 70
0
 10
0.0
 20
0.0
 30
0.0
  3
*Paper_Space0
  1

  0
ENDBLK
  5
25
100
AcDbEntity
  8
0
100
AcDbBlockEnd
  0
ENDSEC
  0
SECTION
  2
ENTITIES
  0
LINE
5
48
100
AcDbEntity
100
AcDbLine
8
3
62
256
370
-1
6
ByLayer
10
0.0
20
14.3656365692
30
0.0
11
0.0501578836597
21
14.3691168536
31
0.0
0
LINE
5
49
100
AcDbEntity
100
AcDbLine
8
3
62
256
370
-1
6
ByLayer
10
0.0501578836597
20
14.3691168536
30
0.0
11
0.100389874745
21
14.3795567033
31
0.0
0
LINE
5
50
100
AcDbEntity
100
AcDbLine
8
3
62
256
370
-1
6
ByLayer
10
0.100389874745
20
14.3795567033
30
0.0
11
0.150770051688
21
14.3969531072
31
0.0
0
LINE
5
51
100
AcDbEntity
100
AcDbLine
8
3
62
256
370
-1
6
ByLayer
10
0.150770051688
20
14.3969531072
30
0.0
11
0.201372434938
21
14.4213010482
31
0.0
0
LINE
5
52
100
AcDbEntity
100
AcDbLine
8
3
62
256
370
-1
6
ByLayer
10
0.201372434938
20
14.4213010482
30
0.0
11
0.252270957998
21
14.4525935042
31
0.0
0
LINE
5
53
100
AcDbEntity
100
AcDbLine
8
3
62
256
370
-1
6
ByLayer
10
0.252270957998
20
14.4525935042
30
0.0
11
0.303539438482
21
14.4908214503
31
0.0
0
LINE
5
54
100
AcDbEntity
100
AcDbLine
8
3
62
256
370
-1
6
ByLayer
10
0.303539438482
20
14.4908214503
30
0.0
11
0.355251549222
21
14.5359738614
31
0.0
0
LINE
5
55
100
AcDbEntity
100
AcDbLine
8
3
62
256
370
-1
6
ByLayer
10
0.355251549222
20
14.5359738614
30
0.0
11
0.407480789406
21
14.5880377154
31
0.0
0
LINE
5
56
100
AcDbEntity
100
AcDbLine
8
3
62
256
370
-1
6
ByLayer
10
0.407480789406
20
14.5880377154
30
0.0
11
0.460300455785
21
14.6469979968
31
0.0
0
LINE
5
57
100
AcDbEntity
100
AcDbLine
8
3
62
256
370
-1
6
ByLayer
10
0.460300455785
20
14.6469979968
30
0.0
11
0.513783613946
21
14.7128377016
31
0.0
0
LINE
5
58
100
AcDbEntity
100
AcDbLine
8
3
62
256
370
-1
6
ByLayer
10
0.513783613946
20
14.7128377016
30
0.0
11
0.568003069648
21
14.7855378413
31
0.0
0
LINE
5
59
100
AcDbEntity
100
AcDbLine
8
3
62
256
370
-1
6
ByLayer
10
0.568003069648
20
14.7855378413
30
0.0
11
0.623031340261
21
14.8650774492
31
0.0
0
LINE
5
60
100
AcDbEntity
100
AcDbLine
8
3
62
256
370
-1
6
ByLayer
10
0.623031340261
20
14.8650774492
30
0.0
11
0.678940626282
21
14.9514335863
31
0.0
0
LINE
5
61
100
AcDbEntity
100
AcDbLine
8
3
62
256
370
-1
6
ByLayer
10
0.678940626282
20
14.9514335863
30
0.0
11
0.735802782967
21
15.0445813476
31
0.0
0
LINE
5
62
100
AcDbEntity
100
AcDbLine
8
3
62
256
370
-1
6
ByLayer
10
0.735802782967
20
15.0445813476
30
0.0
11
0.793689292069
21
15.1444938696
31
0.0
0
LINE
5
63
100
AcDbEntity
100
AcDbLine
8
3
62
256
370
-1
6
ByLayer
10
0.793689292069
20
15.1444938696
30
0.0
11
0.852671233698
21
15.251142338
31
0.0
0
LINE
5
64
100
AcDbEntity
100
AcDbLine
8
3
62
256
370
-1
6
ByLayer
10
0.852671233698
20
15.251142338
30
0.0
11
0.912819258316
21
15.364495996
31
0.0
0
LINE
5
65
100
AcDbEntity
100
AcDbLine
8
3
62
256
370
-1
6
ByLayer
10
0.912819258316
20
15.364495996
30
0.0
11
0.97420355887
21
15.4845221535
31
0.0
0
LINE
5
66
100
AcDbEntity
100
AcDbLine
8
3
62
256
370
-1
6
ByLayer
10
0.97420355887
20
15.4845221535
30
0.0
11
1.03689384307
21
15.611186196
31
0.0
0
LINE
5
67
100
AcDbEntity
100
AcDbLine
8
3
62
256
370
-1
6
ByLayer
10
1.03689384307
20
15.611186196
30
0.0
11
1.10095930584
21
15.744451595
31
0.0
0
LINE
5
68
100
AcDbEntity
100
AcDbLine
8
3
62
256
370
-1
6
ByLayer
10
1.10095930584
20
15.744451595
30
0.0
11
1.16646860191
21
15.8842799186
31
0.0
0
LINE
5
69
100
AcDbEntity
100
AcDbLine
8
3
62
256
370
-1
6
ByLayer
10
1.16646860191
20
15.8842799186
30
0.0
11
1.23348981861
21
16.0306308424
31
0.0
0
LINE
5
70
100
AcDbEntity
100
AcDbLine
8
3
62
256
370
-1
6
ByLayer
10
1.23348981861
20
16.0306308424
30
0.0
11
1.30209044885
21
16.1834621613
31
0.0
0
LINE
5
71
100
AcDbEntity
100
AcDbLine
8
3
62
256
370
-1
6
ByLayer
10
1.30209044885
20
16.1834621613
30
0.0
11
1.37233736427
21
16.3427298017
31
0.0
0
LINE
5
72
100
AcDbEntity
100
AcDbLine
8
3
62
256
370
-1
6
ByLayer
10
1.37233736427
20
16.3427298017
30
0.0
11
1.44429678859
21
16.5083878343
31
0.0
0
LINE
5
73
100
AcDbEntity
100
AcDbLine
8
3
62
256
370
-1
6
ByLayer
10
1.44429678859
20
16.5083878343
30
0.0
11
1.51803427124
21
16.6803884872
31
0.0
0
LINE
5
74
100
AcDbEntity
100
AcDbLine
8
3
62
256
370
-1
6
ByLayer
10
1.51803427124
20
16.6803884872
30
0.0
11
1.59361466111
21
16.8586821598
31
0.0
0
LINE
5
75
100
AcDbEntity
100
AcDbLine
8
3
62
256
370
-1
6
ByLayer
10
1.59361466111
20
16.8586821598
30
0.0
11
1.67110208059
21
17.0432174375
31
0.0
0
LINE
5
76
100
AcDbEntity
100
AcDbLine
8
3
62
256
370
-1
6
ByLayer
10
1.67110208059
20
17.0432174375
30
0.0
11
1.75055989986
21
17.2339411058
31
0.0
0
LINE
5
77
100
AcDbEntity
100
AcDbLine
8
3
62
256
370
-1
6
ByLayer
10
1.75055989986
20
17.2339411058
30
0.0
11
1.83205071135
21
17.4307981664
31
0.0
0
LINE
5
78
100
AcDbEntity
100
AcDbLine
8
3
62
256
370
-1
6
ByLayer
10
1.83205071135
20
17.4307981664
30
0.0
11
1.91563630457
21
17.6337318529
31
0.0
0
LINE
5
79
100
AcDbEntity
100
AcDbLine
8
3
62
256
370
-1
6
ByLayer
10
1.91563630457
20
17.6337318529
30
0.0
11
2.00137764108
21
17.842683647
31
0.0
0
LINE
5
80
100
AcDbEntity
100
AcDbLine
8
3
62
256
370
-1
6
ByLayer
10
2.00137764108
20
17.842683647
30
0.0
11
2.08933482982
21
18.0575932956
31
0.0
0
LINE
5
81
100
AcDbEntity
100
AcDbLine
8
3
62
256
370
-1
6
ByLayer
10
2.08933482982
20
18.0575932956
30
0.0
11
2.17956710267
21
18.2783988283
31
0.0
0
LINE
5
82
100
AcDbEntity
100
AcDbLine
8
3
62
256
370
-1
6
ByLayer
10
2.17956710267
20
18.2783988283
30
0.0
11
2.27213279034
21
18.5050365749
31
0.0
0
LINE
5
83
100
AcDbEntity
100
AcDbLine
8
3
62
256
370
-1
6
ByLayer
10
2.27213279034
20
18.5050365749
30
0.0
11
2.36708929851
21
18.7374411845
31
0.0
0
LINE
5
84
100
AcDbEntity
100
AcDbLine
8
3
62
256
370
-1
6
ByLayer
10
2.36708929851
20
18.7374411845
30
0.0
11
2.46449308428
21
18.9755456437
31
0.0
0
LINE
5
85
100
AcDbEntity
100
AcDbLine
8
3
62
256
370
-1
6
ByLayer
10
2.46449308428
20
18.9755456437
30
0.0
11
2.56439963295
21
19.2192812964
31
0.0
0
LINE
5
86
100
AcDbEntity
100
AcDbLine
8
3
62
256
370
-1
6
ByLayer
10
2.56439963295
20
19.2192812964
30
0.0
11
2.66686343514
21
19.4685778633
31
0.0
0
LINE
5
87
100
AcDbEntity
100
AcDbLine
8
3
62
256
370
-1
6
ByLayer
10
2.66686343514
20
19.4685778633
30
0.0
11
2.77193796417
21
19.7233634626
31
0.0
0
LINE
5
88
100
AcDbEntity
100
AcDbLine
8
3
62
256
370
-1
6
ByLayer
10
2.77193796417
20
19.7233634626
30
0.0
11
2.87967565382
21
19.9835646304
31
0.0
0
LINE
5
89
100
AcDbEntity
100
AcDbLine
8
3
62
256
370
-1
6
ByLayer
10
2.87967565382
20
19.9835646304
30
0.0
11
2.9901278764
21
20.2491063421
31
0.0
0
LINE
5
90
100
AcDbEntity
100
AcDbLine
8
3
62
256
370
-1
6
ByLayer
10
2.9901278764
20
20.2491063421
30
0.0
11
3.10334492123
21
20.5199120341
31
0.0
0
LINE
5
91
100
AcDbEntity
100
AcDbLine
8
3
62
256
370
-1
6
ByLayer
10
3.10334492123
20
20.5199120341
30
0.0
11
3.2193759734
21
20.7959036257
31
0.0
0
LINE
5
92
100
AcDbEntity
100
AcDbLine
8
3
62
256
370
-1
6
ByLayer
10
3.2193759734
20
20.7959036257
30
0.0
11
3.33826909293
21
21.0770015419
31
0.0
0
LINE
5
93
100
AcDbEntity
100
AcDbLine
8
3
62
256
370
-1
6
ByLayer
10
3.33826909293
20
21.0770015419
30
0.0
11
3.46007119429
21
21.3631247361
31
0.0
0
LINE
5
94
100
AcDbEntity
100
AcDbLine
8
3
62
256
370
-1
6
ByLayer
10
3.46007119429
20
21.3631247361
30
0.0
11
3.58482802632
21
21.6541907139
31
0.0
0
LINE
5
95
100
AcDbEntity
100
AcDbLine
8
3
62
256
370
-1
6
ByLayer
10
3.58482802632
20
21.6541907139
30
0.0
11
3.71258415245
21
21.9501155564
31
0.0
0
LINE
5
96
100
AcDbEntity
100
AcDbLine
8
3
62
256
370
-1
6
ByLayer
10
3.71258415245
20
21.9501155564
30
0.0
11
3.84338293146
21
22.2508139446
31
0.0
0
LINE
5
97
100
AcDbEntity
100
AcDbLine
8
3
62
256
370
-1
6
ByLayer
10
3.84338293146
20
22.2508139446
30
0.0
11
3.97726649846
21
22.5561991845
31
0.0
0
LINE
5
98
100
AcDbEntity
100
AcDbLine
8
3
62
256
370
-1
6
ByLayer
10
3.97726649846
20
22.5561991845
30
0.0
11
4.1142757464
21
22.8661832311
31
0.0
0
LINE
5
99
100
AcDbEntity
100
AcDbLine
8
3
62
256
370
-1
6
ByLayer
10
4.1142757464
20
22.8661832311
30
0.0
11
4.25445030795
21
23.1806767148
31
0.0
0
LINE
5
100
100
AcDbEntity
100
AcDbLine
8
3
62
256
370
-1
6
ByLayer
10
4.25445030795
20
23.1806767148
30
0.0
11
4.39782853775
21
23.4995889666
31
0.0
0
LINE
5
101
100
AcDbEntity
100
AcDbLine
8
3
62
256
370
-1
6
ByLayer
10
4.39782853775
20
23.4995889666
30
0.0
11
4.54444749517
21
23.8228280444
31
0.0
0
LINE
5
102
100
AcDbEntity
100
AcDbLine
8
3
62
256
370
-1
6
ByLayer
10
4.54444749517
20
23.8228280444
30
0.0
11
4.69434292737
21
24.1503007594
31
0.0
0
LINE
5
103
100
AcDbEntity
100
AcDbLine
8
3
62
256
370
-1
6
ByLayer
10
4.69434292737
20
24.1503007594
30
0.0
11
4.84754925295
21
24.481912703
31
0.0
0
LINE
5
104
100
AcDbEntity
100
AcDbLine
8
3
62
256
370
-1
6
ByLayer
10
4.84754925295
20
24.481912703
30
0.0
11
5.0040995459
21
24.8175682743
31
0.0
0
LINE
5
105
100
AcDbEntity
100
AcDbLine
8
3
62
256
370
-1
6
ByLayer
10
5.0040995459
20
24.8175682743
30
0.0
11
5.16402552003
21
25.1571707072
31
0.0
0
LINE
5
106
100
AcDbEntity
100
AcDbLine
8
3
62
256
370
-1
6
ByLayer
10
5.16402552003
20
25.1571707072
30
0.0
11
5.32735751391
21
25.5006220984
31
0.0
0
LINE
5
107
100
AcDbEntity
100
AcDbLine
8
3
62
256
370
-1
6
ByLayer
10
5.32735751391
20
25.5006220984
30
0.0
11
5.49412447618
21
25.8478234359
31
0.0
0
LINE
5
108
100
AcDbEntity
100
AcDbLine
8
3
62
256
370
-1
6
ByLayer
10
5.49412447618
20
25.8478234359
30
0.0
11
5.66435395136
21
26.1986746268
31
0.0
0
LINE
5
109
100
AcDbEntity
100
AcDbLine
8
3
62
256
370
-1
6
ByLayer
10
5.66435395136
20
26.1986746268
30
0.0
11
5.8380720661
21
26.5530745272
31
0.0
0
LINE
5
110
100
AcDbEntity
100
AcDbLine
8
3
62
256
370
-1
6
ByLayer
10
5.8380720661
20
26.5530745272
30
0.0
11
6.01530351596
21
26.91092097
31
0.0
0
LINE
5
111
100
AcDbEntity
100
AcDbLine
8
3
62
256
370
-1
6
ByLayer
10
6.01530351596
20
26.91092097
30
0.0
11
6.19607155254
21
27.2721107956
31
0.0
0
LINE
5
112
100
AcDbEntity
100
AcDbLine
8
3
62
256
370
-1
6
ByLayer
10
6.19607155254
20
27.2721107956
30
0.0
11
6.38039797121
21
27.6365398806
31
0.0
0
LINE
5
113
100
AcDbEntity
100
AcDbLine
8
3
62
256
370
-1
6
ByLayer
10
6.38039797121
20
27.6365398806
30
0.0
11
6.56830309927
21
28.0041031682
31
0.0
0
LINE
5
114
100
AcDbEntity
100
AcDbLine
8
3
62
256
370
-1
6
ByLayer
10
6.56830309927
20
28.0041031682
30
0.0
11
6.75980578456
21
28.3746946982
31
0.0
0
LINE
5
115
100
AcDbEntity
100
AcDbLine
8
3
62
256
370
-1
6
ByLayer
10
6.75980578456
20
28.3746946982
30
0.0
11
6.95492338462
21
28.7482076378
31
0.0
0
LINE
5
116
100
AcDbEntity
100
AcDbLine
8
3
62
256
370
-1
6
ByLayer
10
6.95492338462
20
28.7482076378
30
0.0
11
7.1536717563
21
29.1245343118
31
0.0
0
LINE
5
117
100
AcDbEntity
100
AcDbLine
8
3
62
256
370
-1
6
ByLayer
10
7.1536717563
20
29.1245343118
30
0.0
11
7.3560652459
21
29.5035662341
31
0.0
0
LINE
5
118
100
AcDbEntity
100
AcDbLine
8
3
62
256
370
-1
6
ByLayer
10
7.3560652459
20
29.5035662341
30
0.0
11
7.56211667978
21
29.8851941384
31
0.0
0
LINE
5
119
100
AcDbEntity
100
AcDbLine
8
3
62
256
370
-1
6
ByLayer
10
7.56211667978
20
29.8851941384
30
0.0
11
7.77183735545
21
30.2693080098
31
0.0
0
LINE
5
120
100
AcDbEntity
100
AcDbLine
8
3
62
256
370
-1
6
ByLayer
10
7.77183735545
20
30.2693080098
30
0.0
11
7.98523703325
21
30.6557971163
31
0.0
0
LINE
5
121
100
AcDbEntity
100
AcDbLine
8
3
62
256
370
-1
6
ByLayer
10
7.98523703325
20
30.6557971163
30
0.0
11
8.20232392847
21
31.0445500408
31
0.0
0
LINE
5
122
100
AcDbEntity
100
AcDbLine
8
3
62
256
370
-1
6
ByLayer
10
8.20232392847
20
31.0445500408
30
0.0
11
8.42310470397
21
31.4354547127
31
0.0
0
LINE
5
123
100
AcDbEntity
100
AcDbLine
8
3
62
256
370
-1
6
ByLayer
10
8.42310470397
20
31.4354547127
30
0.0
11
8.6475844634
21
31.8283984403
31
0.0
0
LINE
5
124
100
AcDbEntity
100
AcDbLine
8
3
62
256
370
-1
6
ByLayer
10
8.6475844634
20
31.8283984403
30
0.0
11
8.87576674483
21
32.2232679432
31
0.0
0
LINE
5
125
100
AcDbEntity
100
AcDbLine
8
3
62
256
370
-1
6
ByLayer
10
8.87576674483
20
32.2232679432
30
0.0
11
9.10765351496
21
32.6199493846
31
0.0
0
LINE
5
126
100
AcDbEntity
100
AcDbLine
8
3
62
256
370
-1
6
ByLayer
10
9.10765351496
20
32.6199493846
30
0.0
11
9.34324516386
21
33.0183284037
31
0.0
0
LINE
5
127
100
AcDbEntity
100
AcDbLine
8
3
62
256
370
-1
6
ByLayer
10
9.34324516386
20
33.0183284037
30
0.0
11
9.58254050021
21
33.4182901491
31
0.0
0
LINE
5
128
100
AcDbEntity
100
AcDbLine
8
3
62
256
370
-1
6
ByLayer
10
9.58254050021
20
33.4182901491
30
0.0
11
9.82553674706
21
33.8197193113
31
0.0
0
LINE
5
129
100
AcDbEntity
100
AcDbLine
8
3
62
256
370
-1
6
ByLayer
10
9.82553674706
20
33.8197193113
30
0.0
11
10.0722295381
21
34.2225001555
31
0.0
0
LINE
5
130
100
AcDbEntity
100
AcDbLine
8
3
62
256
370
-1
6
ByLayer
10
10.0722295381
20
34.2225001555
30
0.0
11
10.3226129146
21
34.6265165551
31
0.0
0
LINE
5
131
100
AcDbEntity
100
AcDbLine
8
3
62
256
370
-1
6
ByLayer
10
10.3226129146
20
34.6265165551
30
0.0
11
10.5766793227
21
35.0316520251
31
0.0
0
LINE
5
132
100
AcDbEntity
100
AcDbLine
8
3
62
256
370
-1
6
ByLayer
10
10.5766793227
20
35.0316520251
30
0.0
11
10.8344196111
21
35.4377897546
31
0.0
0
LINE
5
133
100
AcDbEntity
100
AcDbLine
8
3
62
256
370
-1
6
ByLayer
10
10.8344196111
20
35.4377897546
30
0.0
11
11.0958230298
21
35.8448126412
31
0.0
0
LINE
5
134
100
AcDbEntity
100
AcDbLine
8
3
62
256
370
-1
6
ByLayer
10
11.0958230298
20
35.8448126412
30
0.0
11
11.360877229
21
36.2526033236
31
0.0
0
LINE
5
135
100
AcDbEntity
100
AcDbLine
8
3
62
256
370
-1
6
ByLayer
10
11.360877229
20
36.2526033236
30
0.0
11
11.6295682584
21
36.661044216
31
0.0
0
LINE
5
136
100
AcDbEntity
100
AcDbLine
8
3
62
256
370
-1
6
ByLayer
10
11.6295682584
20
36.661044216
30
0.0
11
11.9018805674
21
37.0700175408
31
0.0
0
LINE
5
137
100
AcDbEntity
100
AcDbLine
8
3
62
256
370
-1
6
ByLayer
10
11.9018805674
20
37.0700175408
30
0.0
11
12.1777970055
21
37.4794053627
31
0.0
0
LINE
5
138
100
AcDbEntity
100
AcDbLine
8
3
62
256
370
-1
6
ByLayer
10
12.1777970055
20
37.4794053627
30
0.0
11
12.4572988235
21
37.8890896226
31
0.0
0
LINE
5
139
100
AcDbEntity
100
AcDbLine
8
3
62
256
370
-1
6
ByLayer
10
12.4572988235
20
37.8890896226
30
0.0
11
12.7403656752
21
38.2989521707
31
0.0
0
LINE
5
140
100
AcDbEntity
100
AcDbLine
8
3
62
256
370
-1
6
ByLayer
10
12.7403656752
20
38.2989521707
30
0.0
11
13.0269756194
21
38.7088748004
31
0.0
0
LINE
5
141
100
AcDbEntity
100
AcDbLine
8
3
62
256
370
-1
6
ByLayer
10
13.0269756194
20
38.7088748004
30
0.0
11
13.3171051228
21
39.1187392824
31
0.0
0
LINE
5
142
100
AcDbEntity
100
AcDbLine
8
3
62
256
370
-1
6
ByLayer
10
13.3171051228
20
39.1187392824
30
0.0
11
13.6107290629
21
39.5284273976
31
0.0
0
LINE
5
143
100
AcDbEntity
100
AcDbLine
8
3
62
256
370
-1
6
ByLayer
10
13.6107290629
20
39.5284273976
30
0.0
11
13.9078207322
21
39.9378209716
31
0.0
0
LINE
5
144
100
AcDbEntity
100
AcDbLine
8
3
62
256
370
-1
6
ByLayer
10
13.9078207322
20
39.9378209716
30
0.0
11
14.2083518421
21
40.3468019076
31
0.0
0
LINE
5
145
100
AcDbEntity
100
AcDbLine
8
3
62
256
370
-1
6
ByLayer
10
14.2083518421
20
40.3468019076
30
0.0
11
14.5122925279
21
40.7552522206
31
0.0
0
LINE
5
146
100
AcDbEntity
100
AcDbLine
8
3
62
256
370
-1
6
ByLayer
10
14.5122925279
20
40.7552522206
30
0.0
11
14.8196113545
21
41.1630540705
31
0.0
0
LINE
5
147
100
AcDbEntity
100
AcDbLine
8
3
62
256
370
-1
6
ByLayer
10
14.8196113545
20
41.1630540705
30
0.0
11
15.1302753215
21
41.5700897959
31
0.0
0
LINE
5
148
100
AcDbEntity
100
AcDbLine
8
3
62
256
370
-1
6
ByLayer
10
15.1302753215
20
41.5700897959
30
0.0
11
15.4442498704
21
41.9762419472
31
0.0
0
LINE
5
149
100
AcDbEntity
100
AcDbLine
8
3
62
256
370
-1
6
ByLayer
10
15.4442498704
20
41.9762419472
30
0.0
11
15.7614988911
21
42.3813933204
31
0.0
0
LINE
5
150
100
AcDbEntity
100
AcDbLine
8
3
62
256
370
-1
6
ByLayer
10
15.7614988911
20
42.3813933204
30
0.0
11
16.0819847296
21
42.7854269898
31
0.0
0
LINE
5
151
100
AcDbEntity
100
AcDbLine
8
3
62
256
370
-1
6
ByLayer
10
16.0819847296
20
42.7854269898
30
0.0
11
16.4056681959
21
43.1882263417
31
0.0
0
LINE
5
152
100
AcDbEntity
100
AcDbLine
8
3
62
256
370
-1
6
ByLayer
10
16.4056681959
20
43.1882263417
30
0.0
11
16.7325085725
21
43.589675107
31
0.0
0
LINE
5
153
100
AcDbEntity
100
AcDbLine
8
3
62
256
370
-1
6
ByLayer
10
16.7325085725
20
43.589675107
30
0.0
11
17.0624636233
21
43.9896573945
31
0.0
0
LINE
5
154
100
AcDbEntity
100
AcDbLine
8
3
62
256
370
-1
6
ByLayer
10
17.0624636233
20
43.9896573945
30
0.0
11
17.3954896035
21
44.3880577234
31
0.0
0
LINE
5
155
100
AcDbEntity
100
AcDbLine
8
3
62
256
370
-1
6
ByLayer
10
17.3954896035
20
44.3880577234
30
0.0
11
17.7315412695
21
44.7847610562
31
0.0
0
LINE
5
156
100
AcDbEntity
100
AcDbLine
8
3
62
256
370
-1
6
ByLayer
10
17.7315412695
20
44.7847610562
30
0.0
11
18.0705718892
21
45.1796528311
31
0.0
0
LINE
5
157
100
AcDbEntity
100
AcDbLine
8
3
62
256
370
-1
6
ByLayer
10
18.0705718892
20
45.1796528311
30
0.0
11
18.4125332537
21
45.5726189943
31
0.0
0
LINE
5
158
100
AcDbEntity
100
AcDbLine
8
3
62
256
370
-1
6
ByLayer
10
18.4125332537
20
45.5726189943
30
0.0
11
18.7573756882
21
45.9635460326
31
0.0
0
LINE
5
159
100
AcDbEntity
100
AcDbLine
8
3
62
256
370
-1
6
ByLayer
10
18.7573756882
20
45.9635460326
30
0.0
11
19.1050480645
21
46.3523210047
31
0.0
0
LINE
5
160
100
AcDbEntity
100
AcDbLine
8
3
62
256
370
-1
6
ByLayer
10
19.1050480645
20
46.3523210047
30
0.0
11
19.4554978135
21
46.7388315738
31
0.0
0
LINE
5
161
100
AcDbEntity
100
AcDbLine
8
3
62
256
370
-1
6
ByLayer
10
19.4554978135
20
46.7388315738
30
0.0
11
19.8086709383
21
47.1229660389
31
0.0
0
LINE
5
162
100
AcDbEntity
100
AcDbLine
8
3
62
256
370
-1
6
ByLayer
10
19.8086709383
20
47.1229660389
30
0.0
11
20.1645120276
21
47.504613366
31
0.0
0
LINE
5
163
100
AcDbEntity
100
AcDbLine
8
3
62
256
370
-1
6
ByLayer
10
20.1645120276
20
47.504613366
30
0.0
11
20.5229642703
21
47.88366322
31
0.0
0
LINE
5
164
100
AcDbEntity
100
AcDbLine
8
3
62
256
370
-1
6
ByLayer
10
20.5229642703
20
47.88366322
30
0.0
11
20.8839694691
21
48.2600059949
31
0.0
0
LINE
5
165
100
AcDbEntity
100
AcDbLine
8
3
62
256
370
-1
6
ByLayer
10
20.8839694691
20
48.2600059949
30
0.0
11
21.2474680564
21
48.6335328453
31
0.0
0
LINE
5
166
100
AcDbEntity
100
AcDbLine
8
3
62
256
370
-1
6
ByLayer
10
21.2474680564
20
48.6335328453
30
0.0
11
21.6133991094
21
49.0041357166
31
0.0
0
LINE
5
167
100
AcDbEntity
100
AcDbLine
8
3
62
256
370
-1
6
ByLayer
10
21.6133991094
20
49.0041357166
30
0.0
11
21.9817003661
21
49.3717073752
31
0.0
0
LINE
5
168
100
AcDbEntity
100
AcDbLine
8
3
62
256
370
-1
6
ByLayer
10
21.9817003661
20
49.3717073752
30
0.0
11
22.3523082417
21
49.7361414387
31
0.0
0
LINE
5
169
100
AcDbEntity
100
AcDbLine
8
3
62
256
370
-1
6
ByLayer
10
22.3523082417
20
49.7361414387
30
0.0
11
22.7251578456
21
50.0973324058
31
0.0
0
LINE
5
170
100
AcDbEntity
100
AcDbLine
8
3
62
256
370
-1
6
ByLayer
10
22.7251578456
20
50.0973324058
30
0.0
11
23.1001829987
21
50.4551756855
31
0.0
0
LINE
5
171
100
AcDbEntity
100
AcDbLine
8
3
62
256
370
-1
6
ByLayer
10
23.1001829987
20
50.4551756855
30
0.0
11
23.4773162511
21
50.8095676265
31
0.0
0
LINE
5
172
100
AcDbEntity
100
AcDbLine
8
3
62
256
370
-1
6
ByLayer
10
23.4773162511
20
50.8095676265
30
0.0
11
23.8564889004
21
51.160405546
31
0.0
0
LINE
5
173
100
AcDbEntity
100
AcDbLine
8
3
62
256
370
-1
6
ByLayer
10
23.8564889004
20
51.160405546
30
0.0
11
24.2376310105
21
51.5075877584
31
0.0
0
LINE
5
174
100
AcDbEntity
100
AcDbLine
8
3
62
256
370
-1
6
ByLayer
10
24.2376310105
20
51.5075877584
30
0.0
11
24.6206714305
21
51.8510136037
31
0.0
0
LINE
5
175
100
AcDbEntity
100
AcDbLine
8
3
62
256
370
-1
6
ByLayer
10
24.6206714305
20
51.8510136037
30
0.0
11
25.0055378145
21
52.1905834753
31
0.0
0
LINE
5
176
100
AcDbEntity
100
AcDbLine
8
3
62
256
370
-1
6
ByLayer
10
25.0055378145
20
52.1905834753
30
0.0
11
25.3921566412
21
52.5261988479
31
0.0
0
LINE
5
177
100
AcDbEntity
100
AcDbLine
8
3
62
256
370
-1
6
ByLayer
10
25.3921566412
20
52.5261988479
30
0.0
11
25.7804532346
21
52.8577623045
31
0.0
0
LINE
5
178
100
AcDbEntity
100
AcDbLine
8
3
62
256
370
-1
6
ByLayer
10
25.7804532346
20
52.8577623045
30
0.0
11
26.1703517846
21
53.1851775636
31
0.0
0
LINE
5
179
100
AcDbEntity
100
AcDbLine
8
3
62
256
370
-1
6
ByLayer
10
26.1703517846
20
53.1851775636
30
0.0
11
26.5617753686
21
53.508349506
31
0.0
0
LINE
5
180
100
AcDbEntity
100
AcDbLine
8
3
62
256
370
-1
6
ByLayer
10
26.5617753686
20
53.508349506
30
0.0
11
26.9546459723
21
53.8271842008
31
0.0
0
LINE
5
181
100
AcDbEntity
100
AcDbLine
8
3
62
256
370
-1
6
ByLayer
10
26.9546459723
20
53.8271842008
30
0.0
11
27.3488845126
21
54.1415889314
31
0.0
0
LINE
5
182
100
AcDbEntity
100
AcDbLine
8
3
62
256
370
-1
6
ByLayer
10
27.3488845126
20
54.1415889314
30
0.0
11
27.7444108591
21
54.4514722212
31
0.0
0
LINE
5
183
100
AcDbEntity
100
AcDbLine
8
3
62
256
370
-1
6
ByLayer
10
27.7444108591
20
54.4514722212
30
0.0
11
28.1411438578
21
54.7567438586
31
0.0
0
LINE
5
184
100
AcDbEntity
100
AcDbLine
8
3
62
256
370
-1
6
ByLayer
10
28.1411438578
20
54.7567438586
30
0.0
11
28.5390013532
21
55.0573149218
31
0.0
0
LINE
5
185
100
AcDbEntity
100
AcDbLine
8
3
62
256
370
-1
6
ByLayer
10
28.5390013532
20
55.0573149218
30
0.0
11
28.9379002126
21
55.3530978032
31
0.0
0
LINE
5
186
100
AcDbEntity
100
AcDbLine
8
3
62
256
370
-1
6
ByLayer
10
28.9379002126
20
55.3530978032
30
0.0
11
29.3377563496
21
55.6440062336
31
0.0
0
LINE
5
187
100
AcDbEntity
100
AcDbLine
8
3
62
256
370
-1
6
ByLayer
10
29.3377563496
20
55.6440062336
30
0.0
11
29.7384847483
21
55.9299553053
31
0.0
0
LINE
5
188
100
AcDbEntity
100
AcDbLine
8
3
62
256
370
-1
6
ByLayer
10
29.7384847483
20
55.9299553053
30
0.0
11
30.1399994878
21
56.2108614959
31
0.0
0
LINE
5
189
100
AcDbEntity
100
AcDbLine
8
3
62
256
370
-1
6
ByLayer
10
30.1399994878
20
56.2108614959
30
0.0
11
30.5422137673
21
56.4866426902
31
0.0
0
LINE
5
190
100
AcDbEntity
100
AcDbLine
8
3
62
256
370
-1
6
ByLayer
10
30.5422137673
20
56.4866426902
30
0.0
11
30.945039931
21
56.7572182035
31
0.0
0
LINE
5
191
100
AcDbEntity
100
AcDbLine
8
3
62
256
370
-1
6
ByLayer
10
30.945039931
20
56.7572182035
30
0.0
11
31.348389494
21
57.0225088027
31
0.0
0
LINE
5
192
100
AcDbEntity
100
AcDbLine
8
3
62
256
370
-1
6
ByLayer
10
31.348389494
20
57.0225088027
30
0.0
11
31.7521731677
21
57.2824367282
31
0.0
0
LINE
5
193
100
AcDbEntity
100
AcDbLine
8
3
62
256
370
-1
6
ByLayer
10
31.7521731677
20
57.2824367282
30
0.0
11
32.1563008862
21
57.5369257144
31
0.0
0
LINE
5
194
100
AcDbEntity
100
AcDbLine
8
3
62
256
370
-1
6
ByLayer
10
32.1563008862
20
57.5369257144
30
0.0
11
32.5606818328
21
57.7859010108
31
0.0
0
LINE
5
195
100
AcDbEntity
100
AcDbLine
8
3
62
256
370
-1
6
ByLayer
10
32.5606818328
20
57.7859010108
30
0.0
11
32.9652244666
21
58.0292894018
31
0.0
0
LINE
5
196
100
AcDbEntity
100
AcDbLine
8
3
62
256
370
-1
6
ByLayer
10
32.9652244666
20
58.0292894018
30
0.0
11
33.3698365494
21
58.2670192262
31
0.0
0
LINE
5
197
100
AcDbEntity
100
AcDbLine
8
3
62
256
370
-1
6
ByLayer
10
33.3698365494
20
58.2670192262
30
0.0
11
33.7744251733
21
58.4990203966
31
0.0
0
LINE
5
198
100
AcDbEntity
100
AcDbLine
8
3
62
256
370
-1
6
ByLayer
10
33.7744251733
20
58.4990203966
30
0.0
11
34.1788967881
21
58.7252244178
31
0.0
0
LINE
5
199
100
AcDbEntity
100
AcDbLine
8
3
62
256
370
-1
6
ByLayer
10
34.1788967881
20
58.7252244178
30
0.0
11
34.5831572288
21
58.9455644052
31
0.0
0
LINE
5
200
100
AcDbEntity
100
AcDbLine
8
3
62
256
370
-1
6
ByLayer
10
34.5831572288
20
58.9455644052
30
0.0
11
34.9871117444
21
59.1599751024
31
0.0
0
LINE
5
201
100
AcDbEntity
100
AcDbLine
8
3
62
256
370
-1
6
ByLayer
10
34.9871117444
20
59.1599751024
30
0.0
11
35.3906650253
21
59.3683928984
31
0.0
0
LINE
5
202
100
AcDbEntity
100
AcDbLine
8
3
62
256
370
-1
6
ByLayer
10
35.3906650253
20
59.3683928984
30
0.0
11
35.7937212325
21
59.5707558443
31
0.0
0
LINE
5
203
100
AcDbEntity
100
AcDbLine
8
3
62
256
370
-1
6
ByLayer
10
35.7937212325
20
59.5707558443
30
0.0
11
36.1961840261
21
59.7670036695
31
0.0
0
LINE
5
204
100
AcDbEntity
100
AcDbLine
8
3
62
256
370
-1
6
ByLayer
10
36.1961840261
20
59.7670036695
30
0.0
11
36.5979565941
21
59.9570777975
31
0.0
0
LINE
5
205
100
AcDbEntity
100
AcDbLine
8
3
62
256
370
-1
6
ByLayer
10
36.5979565941
20
59.9570777975
30
0.0
11
36.9989416819
21
60.140921361
31
0.0
0
LINE
5
206
100
AcDbEntity
100
AcDbLine
8
3
62
256
370
-1
6
ByLayer
10
36.9989416819
20
60.140921361
30
0.0
11
37.3990416214
21
60.3184792166
31
0.0
0
LINE
5
207
100
AcDbEntity
100
AcDbLine
8
3
62
256
370
-1
6
ByLayer
10
37.3990416214
20
60.3184792166
30
0.0
11
37.7981583607
21
60.4896979588
31
0.0
0
LINE
5
208
100
AcDbEntity
100
AcDbLine
8
3
62
256
370
-1
6
ByLayer
10
37.7981583607
20
60.4896979588
30
0.0
11
38.1961934938
21
60.6545259339
31
0.0
0
LINE
5
209
100
AcDbEntity
100
AcDbLine
8
3
62
256
370
-1
6
ByLayer
10
38.1961934938
20
60.6545259339
30
0.0
11
38.5930482903
21
60.8129132531
31
0.0
0
LINE
5
210
100
AcDbEntity
100
AcDbLine
8
3
62
256
370
-1
6
ByLayer
10
38.5930482903
20
60.8129132531
30
0.0
11
38.9886237258
21
60.9648118048
31
0.0
0
LINE
5
211
100
AcDbEntity
100
AcDbLine
8
3
62
256
370
-1
6
ByLayer
10
38.9886237258
20
60.9648118048
30
0.0
11
39.3828205119
21
61.1101752667
31
0.0
0
LINE
5
212
100
AcDbEntity
100
AcDbLine
8
3
62
256
370
-1
6
ByLayer
10
39.3828205119
20
61.1101752667
30
0.0
11
39.7755391265
21
61.2489591177
31
0.0
0
LINE
5
213
100
AcDbEntity
100
AcDbLine
8
3
62
256
370
-1
6
ByLayer
10
39.7755391265
20
61.2489591177
30
0.0
11
40.1666798443
21
61.3811206485
31
0.0
0
LINE
5
214
100
AcDbEntity
100
AcDbLine
8
3
62
256
370
-1
6
ByLayer
10
40.1666798443
20
61.3811206485
30
0.0
11
40.5561427676
21
61.5066189718
31
0.0
0
LINE
5
215
100
AcDbEntity
100
AcDbLine
8
3
62
256
370
-1
6
ByLayer
10
40.5561427676
20
61.5066189718
30
0.0
11
40.9438278567
21
61.625415033
31
0.0
0
LINE
5
216
100
AcDbEntity
100
AcDbLine
8
3
62
256
370
-1
6
ByLayer
10
40.9438278567
20
61.625415033
30
0.0
11
41.3296349611
21
61.7374716185
31
0.0
0
LINE
5
217
100
AcDbEntity
100
AcDbLine
8
3
62
256
370
-1
6
ByLayer
10
41.3296349611
20
61.7374716185
30
0.0
11
41.7134638498
21
61.8427533652
31
0.0
0
LINE
5
218
100
AcDbEntity
100
AcDbLine
8
3
62
256
370
-1
6
ByLayer
10
41.7134638498
20
61.8427533652
30
0.0
11
42.0952142432
21
61.9412267687
31
0.0
0
LINE
5
219
100
AcDbEntity
100
AcDbLine
8
3
62
256
370
-1
6
ByLayer
10
42.0952142432
20
61.9412267687
30
0.0
11
42.4747858432
21
62.0328601905
31
0.0
0
LINE
5
220
100
AcDbEntity
100
AcDbLine
8
3
62
256
370
-1
6
ByLayer
10
42.4747858432
20
62.0328601905
30
0.0
11
42.852078365
21
62.1176238654
31
0.0
0
LINE
5
221
100
AcDbEntity
100
AcDbLine
8
3
62
256
370
-1
6
ByLayer
10
42.852078365
20
62.1176238654
30
0.0
11
43.2269915681
21
62.1954899081
31
0.0
0
LINE
5
222
100
AcDbEntity
100
AcDbLine
8
3
62
256
370
-1
6
ByLayer
10
43.2269915681
20
62.1954899081
30
0.0
11
43.5994252874
21
62.2664323193
31
0.0
0
LINE
5
223
100
AcDbEntity
100
AcDbLine
8
3
62
256
370
-1
6
ByLayer
10
43.5994252874
20
62.2664323193
30
0.0
11
43.9692794647
21
62.3304269907
31
0.0
0
LINE
5
224
100
AcDbEntity
100
AcDbLine
8
3
62
256
370
-1
6
ByLayer
10
43.9692794647
20
62.3304269907
30
0.0
11
44.33645418
21
62.3874517102
31
0.0
0
LINE
5
225
100
AcDbEntity
100
AcDbLine
8
3
62
256
370
-1
6
ByLayer
10
44.33645418
20
62.3874517102
30
0.0
11
44.7008496824
21
62.4374861661
31
0.0
0
LINE
5
226
100
AcDbEntity
100
AcDbLine
8
3
62
256
370
-1
6
ByLayer
10
44.7008496824
20
62.4374861661
30
0.0
11
45.0623664219
21
62.480511951
31
0.0
0
LINE
5
227
100
AcDbEntity
100
AcDbLine
8
3
62
256
370
-1
6
ByLayer
10
45.0623664219
20
62.480511951
30
0.0
11
45.4209050808
21
62.5165125646
31
0.0
0
LINE
5
228
100
AcDbEntity
100
AcDbLine
8
3
62
256
370
-1
6
ByLayer
10
45.4209050808
20
62.5165125646
30
0.0
11
45.7763666044
21
62.5454734168
31
0.0
0
LINE
5
229
100
AcDbEntity
100
AcDbLine
8
3
62
256
370
-1
6
ByLayer
10
45.7763666044
20
62.5454734168
30
0.0
11
46.128652233
21
62.567381829
31
0.0
0
LINE
5
230
100
AcDbEntity
100
AcDbLine
8
3
62
256
370
-1
6
ByLayer
10
46.128652233
20
62.567381829
30
0.0
11
46.4776635325
21
62.5822270365
31
0.0
0
LINE
5
231
100
AcDbEntity
100
AcDbLine
8
3
62
256
370
-1
6
ByLayer
10
46.4776635325
20
62.5822270365
30
0.0
11
46.8233024262
21
62.5900001886
31
0.0
0
LINE
5
232
100
AcDbEntity
100
AcDbLine
8
3
62
256
370
-1
6
ByLayer
10
46.8233024262
20
62.5900001886
30
0.0
11
47.1654712257
21
62.5906943494
31
0.0
0
LINE
5
233
100
AcDbEntity
100
AcDbLine
8
3
62
256
370
-1
6
ByLayer
10
47.1654712257
20
62.5906943494
30
0.0
11
47.504072662
21
62.5843044972
31
0.0
0
LINE
5
234
100
AcDbEntity
100
AcDbLine
8
3
62
256
370
-1
6
ByLayer
10
47.504072662
20
62.5843044972
30
0.0
11
47.8390099166
21
62.5708275241
31
0.0
0
LINE
5
235
100
AcDbEntity
100
AcDbLine
8
3
62
256
370
-1
6
ByLayer
10
47.8390099166
20
62.5708275241
30
0.0
11
48.1701866522
21
62.5502622343
31
0.0
0
LINE
5
236
100
AcDbEntity
100
AcDbLine
8
3
62
256
370
-1
6
ByLayer
10
48.1701866522
20
62.5502622343
30
0.0
11
48.4975070441
21
62.5226093422
31
0.0
0
LINE
5
237
100
AcDbEntity
100
AcDbLine
8
3
62
256
370
-1
6
ByLayer
10
48.4975070441
20
62.5226093422
30
0.0
11
48.8208758106
21
62.4878714701
31
0.0
0
LINE
5
238
100
AcDbEntity
100
AcDbLine
8
3
62
256
370
-1
6
ByLayer
10
48.8208758106
20
62.4878714701
30
0.0
11
49.1401982435
21
62.4460531448
31
0.0
0
LINE
5
239
100
AcDbEntity
100
AcDbLine
8
3
62
256
370
-1
6
ByLayer
10
49.1401982435
20
62.4460531448
30
0.0
11
49.4553802393
21
62.3971607944
31
0.0
0
LINE
5
240
100
AcDbEntity
100
AcDbLine
8
3
62
256
370
-1
6
ByLayer
10
49.4553802393
20
62.3971607944
30
0.0
11
49.7663283288
21
62.3412027437
31
0.0
0
LINE
5
241
100
AcDbEntity
100
AcDbLine
8
3
62
256
370
-1
6
ByLayer
10
49.7663283288
20
62.3412027437
30
0.0
11
50.072949708
21
62.2781892095
31
0.0
0
LINE
5
242
100
AcDbEntity
100
AcDbLine
8
3
62
256
370
-1
6
ByLayer
10
50.072949708
20
62.2781892095
30
0.0
11
50.3751522679
21
62.2081322957
31
0.0
0
LINE
5
243
100
AcDbEntity
100
AcDbLine
8
3
62
256
370
-1
6
ByLayer
10
50.3751522679
20
62.2081322957
30
0.0
11
50.6728446246
21
62.1310459867
31
0.0
0
LINE
5
244
100
AcDbEntity
100
AcDbLine
8
3
62
256
370
-1
6
ByLayer
10
50.6728446246
20
62.1310459867
30
0.0
11
50.9659361492
21
62.0469461418
31
0.0
0
LINE
5
245
100
AcDbEntity
100
AcDbLine
8
3
62
256
370
-1
6
ByLayer
10
50.9659361492
20
62.0469461418
30
0.0
11
51.2543369972
21
61.9558504876
31
0.0
0
LINE
5
246
100
AcDbEntity
100
AcDbLine
8
3
62
256
370
-1
6
ByLayer
10
51.2543369972
20
61.9558504876
30
0.0
11
51.5379581382
21
61.8577786106
31
0.0
0
LINE
5
247
100
AcDbEntity
100
AcDbLine
8
3
62
256
370
-1
6
ByLayer
10
51.5379581382
20
61.8577786106
30
0.0
11
51.816711385
21
61.7527519495
31
0.0
0
LINE
5
248
100
AcDbEntity
100
AcDbLine
8
3
62
256
370
-1
6
ByLayer
10
51.816711385
20
61.7527519495
30
0.0
11
52.0905094226
21
61.6407937859
31
0.0
0
LINE
5
249
100
AcDbEntity
100
AcDbLine
8
3
62
256
370
-1
6
ByLayer
10
52.0905094226
20
61.6407937859
30
0.0
11
52.3592658374
21
61.521929236
31
0.0
0
LINE
5
250
100
AcDbEntity
100
AcDbLine
8
3
62
256
370
-1
6
ByLayer
10
52.3592658374
20
61.521929236
30
0.0
11
52.6228951454
21
61.3961852402
31
0.0
0
LINE
5
251
100
AcDbEntity
100
AcDbLine
8
3
62
256
370
-1
6
ByLayer
10
52.6228951454
20
61.3961852402
30
0.0
11
52.8813128208
21
61.263590553
31
0.0
0
LINE
5
252
100
AcDbEntity
100
AcDbLine
8
3
62
256
370
-1
6
ByLayer
10
52.8813128208
20
61.263590553
30
0.0
11
53.1344353242
21
61.1241757325
31
0.0
0
LINE
5
253
100
AcDbEntity
100
AcDbLine
8
3
62
256
370
-1
6
ByLayer
10
53.1344353242
20
61.1241757325
30
0.0
11
53.3821801305
21
60.9779731291
31
0.0
0
LINE
5
254
100
AcDbEntity
100
AcDbLine
8
3
62
256
370
-1
6
ByLayer
10
53.3821801305
20
60.9779731291
30
0.0
11
53.6244657563
21
60.8250168733
31
0.0
0
LINE
5
255
100
AcDbEntity
100
AcDbLine
8
3
62
256
370
-1
6
ByLayer
10
53.6244657563
20
60.8250168733
30
0.0
11
53.8612117877
21
60.6653428637
31
0.0
0
LINE
5
256
100
AcDbEntity
100
AcDbLine
8
3
62
256
370
-1
6
ByLayer
10
53.8612117877
20
60.6653428637
30
0.0
11
54.0923389071
21
60.4989887542
31
0.0
0
LINE
5
257
100
AcDbEntity
100
AcDbLine
8
3
62
256
370
-1
6
ByLayer
10
54.0923389071
20
60.4989887542
30
0.0
11
54.3177689201
21
60.3259939403
31
0.0
0
LINE
5
258
100
AcDbEntity
100
AcDbLine
8
3
62
256
370
-1
6
ByLayer
10
54.3177689201
20
60.3259939403
30
0.0
11
54.5374247823
21
60.1463995455
31
0.0
0
LINE
5
259
100
AcDbEntity
100
AcDbLine
8
3
62
256
370
-1
6
ByLayer
10
54.5374247823
20
60.1463995455
30
0.0
11
54.7512306251
21
59.960248407
31
0.0
0
LINE
5
260
100
AcDbEntity
100
AcDbLine
8
3
62
256
370
-1
6
ByLayer
10
54.7512306251
20
59.960248407
30
0.0
11
54.959111782
21
59.7675850605
31
0.0
0
LINE
5
261
100
AcDbEntity
100
AcDbLine
8
3
62
256
370
-1
6
ByLayer
10
54.959111782
20
59.7675850605
30
0.0
11
55.160994814
21
59.5684557251
31
0.0
0
LINE
5
262
100
AcDbEntity
100
AcDbLine
8
3
62
256
370
-1
6
ByLayer
10
55.160994814
20
59.5684557251
30
0.0
11
55.3568075351
21
59.3629082874
31
0.0
0
LINE
5
263
100
AcDbEntity
100
AcDbLine
8
3
62
256
370
-1
6
ByLayer
10
55.3568075351
20
59.3629082874
30
0.0
11
55.546479037
21
59.1509922852
31
0.0
0
LINE
5
264
100
AcDbEntity
100
AcDbLine
8
3
62
256
370
-1
6
ByLayer
10
55.546479037
20
59.1509922852
30
0.0
11
55.729939714
21
58.9327588905
31
0.0
0
LINE
5
265
100
AcDbEntity
100
AcDbLine
8
3
62
256
370
-1
6
ByLayer
10
55.729939714
20
58.9327588905
30
0.0
11
55.9071212871
21
58.7082608923
31
0.0
0
LINE
5
266
100
AcDbEntity
100
AcDbLine
8
3
62
256
370
-1
6
ByLayer
10
55.9071212871
20
58.7082608923
30
0.0
11
56.077956828
21
58.477552679
31
0.0
0
LINE
5
267
100
AcDbEntity
100
AcDbLine
8
3
62
256
370
-1
6
ByLayer
10
56.077956828
20
58.477552679
30
0.0
11
56.2423807826
21
58.2406902201
31
0.0
0
LINE
5
268
100
AcDbEntity
100
AcDbLine
8
3
62
256
370
-1
6
ByLayer
10
56.2423807826
20
58.2406902201
30
0.0
11
56.4003289942
21
57.9977310473
31
0.0
0
LINE
5
269
100
AcDbEntity
100
AcDbLine
8
3
62
256
370
-1
6
ByLayer
10
56.4003289942
20
57.9977310473
30
0.0
11
56.5517387265
21
57.7487342357
31
0.0
0
LINE
5
270
100
AcDbEntity
100
AcDbLine
8
3
62
256
370
-1
6
ByLayer
10
56.5517387265
20
57.7487342357
30
0.0
11
56.6965486856
21
57.4937603842
31
0.0
0
LINE
5
271
100
AcDbEntity
100
AcDbLine
8
3
62
256
370
-1
6
ByLayer
10
56.6965486856
20
57.4937603842
30
0.0
11
56.8346990424
21
57.2328715951
31
0.0
0
LINE
5
272
100
AcDbEntity
100
AcDbLine
8
3
62
256
370
-1
6
ByLayer
10
56.8346990424
20
57.2328715951
30
0.0
11
56.9661314543
21
56.9661314543
31
0.0
0
LINE
5
273
100
AcDbEntity
100
AcDbLine
8
3
62
256
370
-1
6
ByLayer
10
56.9661314543
20
56.9661314543
30
0.0
11
57.0907890858
21
56.6936050098
31
0.0
0
LINE
5
274
100
AcDbEntity
100
AcDbLine
8
3
62
256
370
-1
6
ByLayer
10
57.0907890858
20
56.6936050098
30
0.0
11
57.2086166303
21
56.4153587509
31
0.0
0
LINE
5
275
100
AcDbEntity
100
AcDbLine
8
3
62
256
370
-1
6
ByLayer
10
57.2086166303
20
56.4153587509
30
0.0
11
57.3195603295
21
56.1314605864
31
0.0
0
LINE
5
276
100
AcDbEntity
100
AcDbLine
8
3
62
256
370
-1
6
ByLayer
10
57.3195603295
20
56.1314605864
30
0.0
11
57.4235679939
21
55.8419798222
31
0.0
0
LINE
5
277
100
AcDbEntity
100
AcDbLine
8
3
62
256
370
-1
6
ByLayer
10
57.4235679939
20
55.8419798222
30
0.0
11
57.5205890225
21
55.5469871393
31
0.0
0
LINE
5
278
100
AcDbEntity
100
AcDbLine
8
3
62
256
370
-1
6
ByLayer
10
57.5205890225
20
55.5469871393
30
0.0
11
57.6105744213
21
55.2465545705
31
0.0
0
LINE
5
279
100
AcDbEntity
100
AcDbLine
8
3
62
256
370
-1
6
ByLayer
10
57.6105744213
20
55.2465545705
30
0.0
11
57.6934768225
21
54.9407554774
31
0.0
0
LINE
5
280
100
AcDbEntity
100
AcDbLine
8
3
62
256
370
-1
6
ByLayer
10
57.6934768225
20
54.9407554774
30
0.0
11
57.7692505022
21
54.6296645265
31
0.0
0
LINE
5
281
100
AcDbEntity
100
AcDbLine
8
3
62
256
370
-1
6
ByLayer
10
57.7692505022
20
54.6296645265
30
0.0
11
57.8378513986
21
54.3133576655
31
0.0
0
LINE
5
282
100
AcDbEntity
100
AcDbLine
8
3
62
256
370
-1
6
ByLayer
10
57.8378513986
20
54.3133576655
30
0.0
11
57.8992371291
21
53.9919120987
31
0.0
0
LINE
5
283
100
AcDbEntity
100
AcDbLine
8
3
62
256
370
-1
6
ByLayer
10
57.8992371291
20
53.9919120987
30
0.0
11
57.9533670069
21
53.6654062625
31
0.0
0
LINE
5
284
100
AcDbEntity
100
AcDbLine
8
3
62
256
370
-1
6
ByLayer
10
57.9533670069
20
53.6654062625
30
0.0
11
58.0002020575
21
53.3339198
31
0.0
0
LINE
5
285
100
AcDbEntity
100
AcDbLine
8
3
62
256
370
-1
6
ByLayer
10
58.0002020575
20
53.3339198
30
0.0
11
58.0397050345
21
52.9975335357
31
0.0
0
LINE
5
286
100
AcDbEntity
100
AcDbLine
8
3
62
256
370
-1
6
ByLayer
10
58.0397050345
20
52.9975335357
30
0.0
11
58.0718404352
21
52.6563294501
31
0.0
0
LINE
5
287
100
AcDbEntity
100
AcDbLine
8
3
62
256
370
-1
6
ByLayer
10
58.0718404352
20
52.6563294501
30
0.0
11
58.096574515
21
52.3103906532
31
0.0
0
LINE
5
288
100
AcDbEntity
100
AcDbLine
8
3
62
256
370
-1
6
ByLayer
10
58.096574515
20
52.3103906532
30
0.0
11
58.1138753021
21
51.9598013583
31
0.0
0
LINE
5
289
100
AcDbEntity
100
AcDbLine
8
3
62
256
370
-1
6
ByLayer
10
58.1138753021
20
51.9598013583
30
0.0
11
58.1237126112
21
51.6046468553
31
0.0
0
LINE
5
290
100
AcDbEntity
100
AcDbLine
8
3
62
256
370
-1
6
ByLayer
10
58.1237126112
20
51.6046468553
30
0.0
11
58.1260580571
21
51.2450134839
31
0.0
0
LINE
5
291
100
AcDbEntity
100
AcDbLine
8
3
62
256
370
-1
6
ByLayer
10
58.1260580571
20
51.2450134839
30
0.0
11
58.1208850671
21
50.880988606
31
0.0
0
LINE
5
292
100
AcDbEntity
100
AcDbLine
8
3
62
256
370
-1
6
ByLayer
10
58.1208850671
20
50.880988606
30
0.0
11
58.108168894
21
50.5126605783
31
0.0
0
LINE
5
293
100
AcDbEntity
100
AcDbLine
8
3
62
256
370
-1
6
ByLayer
10
58.108168894
20
50.5126605783
30
0.0
11
58.0878866272
21
50.1401187248
31
0.0
0
LINE
5
294
100
AcDbEntity
100
AcDbLine
8
3
62
256
370
-1
6
ByLayer
10
58.0878866272
20
50.1401187248
30
0.0
11
58.0600172045
21
49.7634533081
31
0.0
0
LINE
5
295
100
AcDbEntity
100
AcDbLine
8
3
62
256
370
-1
6
ByLayer
10
58.0600172045
20
49.7634533081
30
0.0
11
58.0245414227
21
49.3827555015
31
0.0
0
LINE
5
296
100
AcDbEntity
100
AcDbLine
8
3
62
256
370
-1
6
ByLayer
10
58.0245414227
20
49.3827555015
30
0.0
11
57.9814419477
21
48.9981173604
31
0.0
0
LINE
5
297
100
AcDbEntity
100
AcDbLine
8
3
62
256
370
-1
6
ByLayer
10
57.9814419477
20
48.9981173604
30
0.0
11
57.9307033245
21
48.6096317934
31
0.0
0
LINE
5
298
100
AcDbEntity
100
AcDbLine
8
3
62
256
370
-1
6
ByLayer
10
57.9307033245
20
48.6096317934
30
0.0
11
57.872311986
21
48.2173925332
31
0.0
0
LINE
5
299
100
AcDbEntity
100
AcDbLine
8
3
62
256
370
-1
6
ByLayer
10
57.872311986
20
48.2173925332
30
0.0
11
57.8062562621
21
47.8214941073
31
0.0
0
LINE
5
300
100
AcDbEntity
100
AcDbLine
8
3
62
256
370
-1
6
ByLayer
10
57.8062562621
20
47.8214941073
30
0.0
11
57.7325263871
21
47.4220318089
31
0.0
0
LINE
5
301
100
AcDbEntity
100
AcDbLine
8
3
62
256
370
-1
6
ByLayer
10
57.7325263871
20
47.4220318089
30
0.0
11
57.651114508
21
47.0191016666
31
0.0
0
LINE
5
302
100
AcDbEntity
100
AcDbLine
8
3
62
256
370
-1
6
ByLayer
10
57.651114508
20
47.0191016666
30
0.0
11
57.5620146909
21
46.6128004152
31
0.0
0
LINE
5
303
100
AcDbEntity
100
AcDbLine
8
3
62
256
370
-1
6
ByLayer
10
57.5620146909
20
46.6128004152
30
0.0
11
57.4652229276
21
46.2032254652
31
0.0
0
LINE
5
304
100
AcDbEntity
100
AcDbLine
8
3
62
256
370
-1
6
ByLayer
10
57.4652229276
20
46.2032254652
30
0.0
11
57.3607371416
21
45.7904748728
31
0.0
0
LINE
5
305
100
AcDbEntity
100
AcDbLine
8
3
62
256
370
-1
6
ByLayer
10
57.3607371416
20
45.7904748728
30
0.0
11
57.2485571932
21
45.3746473092
31
0.0
0
LINE
5
306
100
AcDbEntity
100
AcDbLine
8
3
62
256
370
-1
6
ByLayer
10
57.2485571932
20
45.3746473092
30
0.0
11
57.1286848844
21
44.9558420306
31
0.0
0
LINE
5
307
100
AcDbEntity
100
AcDbLine
8
3
62
256
370
-1
6
ByLayer
10
57.1286848844
20
44.9558420306
30
0.0
11
57.0011239631
21
44.5341588471
31
0.0
0
LINE
5
308
100
AcDbEntity
100
AcDbLine
8
3
62
256
370
-1
6
ByLayer
10
57.0011239631
20
44.5341588471
30
0.0
11
56.8658801266
21
44.109698092
31
0.0
0
LINE
5
309
100
AcDbEntity
100
AcDbLine
8
3
62
256
370
-1
6
ByLayer
10
56.8658801266
20
44.109698092
30
0.0
11
56.7229610249
21
43.682560591
31
0.0
0
LINE
5
310
100
AcDbEntity
100
AcDbLine
8
3
62
256
370
-1
6
ByLayer
10
56.7229610249
20
43.682560591
30
0.0
11
56.5723762629
21
43.2528476309
31
0.0
0
LINE
5
311
100
AcDbEntity
100
AcDbLine
8
3
62
256
370
-1
6
ByLayer
10
56.5723762629
20
43.2528476309
30
0.0
11
56.4141374023
21
42.8206609285
31
0.0
0
LINE
5
312
100
AcDbEntity
100
AcDbLine
8
3
62
256
370
-1
6
ByLayer
10
56.4141374023
20
42.8206609285
30
0.0
11
56.2482579635
21
42.3861025996
31
0.0
0
LINE
5
313
100
AcDbEntity
100
AcDbLine
8
3
62
256
370
-1
6
ByLayer
10
56.2482579635
20
42.3861025996
30
0.0
11
56.0747534258
21
41.9492751273
31
0.0
0
LINE
5
314
100
AcDbEntity
100
AcDbLine
8
3
62
256
370
-1
6
ByLayer
10
56.0747534258
20
41.9492751273
30
0.0
11
55.8936412277
21
41.5102813307
31
0.0
0
LINE
5
315
100
AcDbEntity
100
AcDbLine
8
3
62
256
370
-1
6
ByLayer
10
55.8936412277
20
41.5102813307
30
0.0
11
55.704940767
21
41.0692243335
31
0.0
0
LINE
5
316
100
AcDbEntity
100
AcDbLine
8
3
62
256
370
-1
6
ByLayer
10
55.704940767
20
41.0692243335
30
0.0
11
55.5086733993
21
40.6262075325
31
0.0
0
LINE
5
317
100
AcDbEntity
100
AcDbLine
8
3
62
256
370
-1
6
ByLayer
10
55.5086733993
20
40.6262075325
30
0.0
11
55.3048624368
21
40.1813345658
31
0.0
0
LINE
5
318
100
AcDbEntity
100
AcDbLine
8
3
62
256
370
-1
6
ByLayer
10
55.3048624368
20
40.1813345658
30
0.0
11
55.0935331462
21
39.7347092812
31
0.0
0
LINE
5
319
100
AcDbEntity
100
AcDbLine
8
3
62
256
370
-1
6
ByLayer
10
55.0935331462
20
39.7347092812
30
0.0
11
54.8747127461
21
39.2864357046
31
0.0
0
LINE
5
320
100
AcDbEntity
100
AcDbLine
8
3
62
256
370
-1
6
ByLayer
10
54.8747127461
20
39.2864357046
30
0.0
11
54.6484304035
21
38.8366180085
31
0.0
0
LINE
5
321
100
AcDbEntity
100
AcDbLine
8
3
62
256
370
-1
6
ByLayer
10
54.6484304035
20
38.8366180085
30
0.0
11
54.4147172306
21
38.3853604799
31
0.0
0
LINE
5
322
100
AcDbEntity
100
AcDbLine
8
3
62
256
370
-1
6
ByLayer
10
54.4147172306
20
38.3853604799
30
0.0
11
54.1736062796
21
37.932767489
31
0.0
0
LINE
5
323
100
AcDbEntity
100
AcDbLine
8
3
62
256
370
-1
6
ByLayer
10
54.1736062796
20
37.932767489
30
0.0
11
53.9251325388
21
37.4789434572
31
0.0
0
LINE
5
324
100
AcDbEntity
100
AcDbLine
8
3
62
256
370
-1
6
ByLayer
10
53.9251325388
20
37.4789434572
30
0.0
11
53.669332926
21
37.0239928257
31
0.0
0
LINE
5
325
100
AcDbEntity
100
AcDbLine
8
3
62
256
370
-1
6
ByLayer
10
53.669332926
20
37.0239928257
30
0.0
11
53.4062462835
21
36.5680200238
31
0.0
0
LINE
5
326
100
AcDbEntity
100
AcDbLine
8
3
62
256
370
-1
6
ByLayer
10
53.4062462835
20
36.5680200238
30
0.0
11
53.1359133704
21
36.111129437
31
0.0
0
LINE
5
327
100
AcDbEntity
100
AcDbLine
8
3
62
256
370
-1
6
ByLayer
10
53.1359133704
20
36.111129437
30
0.0
11
52.8583768564
21
35.6534253761
31
0.0
0
LINE
5
328
100
AcDbEntity
100
AcDbLine
8
3
62
256
370
-1
6
ByLayer
10
52.8583768564
20
35.6534253761
30
0.0
11
52.5736813134
21
35.1950120451
31
0.0
0
LINE
5
329
100
AcDbEntity
100
AcDbLine
8
3
62
256
370
-1
6
ByLayer
10
52.5736813134
20
35.1950120451
30
0.0
11
52.2818732075
21
34.73599351
31
0.0
0
LINE
5
330
100
AcDbEntity
100
AcDbLine
8
3
62
256
370
-1
6
ByLayer
10
52.2818732075
20
34.73599351
30
0.0
11
51.9830008896
21
34.2764736676
31
0.0
0
LINE
5
331
100
AcDbEntity
100
AcDbLine
8
3
62
256
370
-1
6
ByLayer
10
51.9830008896
20
34.2764736676
30
0.0
11
51.6771145869
21
33.8165562141
31
0.0
0
LINE
5
332
100
AcDbEntity
100
AcDbLine
8
3
62
256
370
-1
6
ByLayer
10
51.6771145869
20
33.8165562141
30
0.0
11
51.3642663919
21
33.3563446139
31
0.0
0
LINE
5
333
100
AcDbEntity
100
AcDbLine
8
3
62
256
370
-1
6
ByLayer
10
51.3642663919
20
33.3563446139
30
0.0
11
51.0445102524
21
32.8959420688
31
0.0
0
LINE
5
334
100
AcDbEntity
100
AcDbLine
8
3
62
256
370
-1
6
ByLayer
10
51.0445102524
20
32.8959420688
30
0.0
11
50.7179019604
21
32.4354514868
31
0.0
0
LINE
5
335
100
AcDbEntity
100
AcDbLine
8
3
62
256
370
-1
6
ByLayer
10
50.7179019604
20
32.4354514868
30
0.0
11
50.3844991402
21
31.9749754514
31
0.0
0
LINE
5
336
100
AcDbEntity
100
AcDbLine
8
3
62
256
370
-1
6
ByLayer
10
50.3844991402
20
31.9749754514
30
0.0
11
50.0443612363
21
31.514616191
31
0.0
0
LINE
5
337
100
AcDbEntity
100
AcDbLine
8
3
62
256
370
-1
6
ByLayer
10
50.0443612363
20
31.514616191
30
0.0
11
49.6975495009
21
31.0544755481
31
0.0
0
LINE
5
338
100
AcDbEntity
100
AcDbLine
8
3
62
256
370
-1
6
ByLayer
10
49.6975495009
20
31.0544755481
30
0.0
11
49.3441269802
21
30.5946549494
31
0.0
0
LINE
5
339
100
AcDbEntity
100
AcDbLine
8
3
62
256
370
-1
6
ByLayer
10
49.3441269802
20
30.5946549494
30
0.0
11
48.984158501
21
30.1352553752
31
0.0
0
LINE
5
340
100
AcDbEntity
100
AcDbLine
8
3
62
256
370
-1
6
ByLayer
10
48.984158501
20
30.1352553752
30
0.0
11
48.6177106559
21
29.6763773294
31
0.0
0
LINE
5
341
100
AcDbEntity
100
AcDbLine
8
3
62
256
370
-1
6
ByLayer
10
48.6177106559
20
29.6763773294
30
0.0
11
48.2448517891
21
29.21812081
31
0.0
0
LINE
5
342
100
AcDbEntity
100
AcDbLine
8
3
62
256
370
-1
6
ByLayer
10
48.2448517891
20
29.21812081
30
0.0
11
47.8656519802
21
28.760585279
31
0.0
0
LINE
5
343
100
AcDbEntity
100
AcDbLine
8
3
62
256
370
-1
6
ByLayer
10
47.8656519802
20
28.760585279
30
0.0
11
47.4801830289
21
28.303869633
31
0.0
0
LINE
5
344
100
AcDbEntity
100
AcDbLine
8
3
62
256
370
-1
6
ByLayer
10
47.4801830289
20
28.303869633
30
0.0
11
47.0885184384
21
27.8480721743
31
0.0
0
LINE
5
345
100
AcDbEntity
100
AcDbLine
8
3
62
256
370
-1
6
ByLayer
10
47.0885184384
20
27.8480721743
30
0.0
11
46.6907333982
21
27.3932905814
31
0.0
0
LINE
5
346
100
AcDbEntity
100
AcDbLine
8
3
62
256
370
-1
6
ByLayer
10
46.6907333982
20
27.3932905814
30
0.0
11
46.2869047671
21
26.9396218807
31
0.0
0
LINE
5
347
100
AcDbEntity
100
AcDbLine
8
3
62
256
370
-1
6
ByLayer
10
46.2869047671
20
26.9396218807
30
0.0
11
45.8771110549
21
26.4871624172
31
0.0
0
LINE
5
348
100
AcDbEntity
100
AcDbLine
8
3
62
256
370
-1
6
ByLayer
10
45.8771110549
20
26.4871624172
30
0.0
11
45.4614324042
21
26.036007827
31
0.0
0
LINE
5
349
100
AcDbEntity
100
AcDbLine
8
3
62
256
370
-1
6
ByLayer
10
45.4614324042
20
26.036007827
30
0.0
11
45.0399505711
21
25.5862530085
31
0.0
0
LINE
5
350
100
AcDbEntity
100
AcDbLine
8
3
62
256
370
-1
6
ByLayer
10
45.0399505711
20
25.5862530085
30
0.0
11
44.6127489064
21
25.1379920953
31
0.0
0
LINE
5
351
100
AcDbEntity
100
AcDbLine
8
3
62
256
370
-1
6
ByLayer
10
44.6127489064
20
25.1379920953
30
0.0
11
44.1799123349
21
24.6913184277
31
0.0
0
LINE
5
352
100
AcDbEntity
100
AcDbLine
8
3
62
256
370
-1
6
ByLayer
10
44.1799123349
20
24.6913184277
30
0.0
11
43.7415273357
21
24.2463245266
31
0.0
0
LINE
5
353
100
AcDbEntity
100
AcDbLine
8
3
62
256
370
-1
6
ByLayer
10
43.7415273357
20
24.2463245266
30
0.0
11
43.2976819211
21
23.8031020653
31
0.0
0
LINE
5
354
100
AcDbEntity
100
AcDbLine
8
3
62
256
370
-1
6
ByLayer
10
43.2976819211
20
23.8031020653
30
0.0
11
42.848465615
21
23.3617418437
31
0.0
0
LINE
5
355
100
AcDbEntity
100
AcDbLine
8
3
62
256
370
-1
6
ByLayer
10
42.848465615
20
23.3617418437
30
0.0
11
42.3939694317
21
22.9223337617
31
0.0
0
LINE
5
356
100
AcDbEntity
100
AcDbLine
8
3
62
256
370
-1
6
ByLayer
10
42.3939694317
20
22.9223337617
30
0.0
11
41.9342858532
21
22.4849667929
31
0.0
0
LINE
5
357
100
AcDbEntity
100
AcDbLine
8
3
62
256
370
-1
6
ByLayer
10
41.9342858532
20
22.4849667929
30
0.0
11
41.4695088067
21
22.0497289589
31
0.0
0
LINE
5
358
100
AcDbEntity
100
AcDbLine
8
3
62
256
370
-1
6
ByLayer
10
41.4695088067
20
22.0497289589
30
0.0
11
40.9997336416
21
21.616707304
31
0.0
0
LINE
5
359
100
AcDbEntity
100
AcDbLine
8
3
62
256
370
-1
6
ByLayer
10
40.9997336416
20
21.616707304
30
0.0
11
40.5250571057
21
21.1859878702
31
0.0
0
LINE
5
360
100
AcDbEntity
100
AcDbLine
8
3
62
256
370
-1
6
ByLayer
10
40.5250571057
20
21.1859878702
30
0.0
11
40.0455773215
21
20.7576556719
31
0.0
0
LINE
5
361
100
AcDbEntity
100
AcDbLine
8
3
62
256
370
-1
6
ByLayer
10
40.0455773215
20
20.7576556719
30
0.0
11
39.5613937614
21
20.3317946722
31
0.0
0
LINE
5
362
100
AcDbEntity
100
AcDbLine
8
3
62
256
370
-1
6
ByLayer
10
39.5613937614
20
20.3317946722
30
0.0
11
39.0726072235
21
19.9084877585
31
0.0
0
LINE
5
363
100
AcDbEntity
100
AcDbLine
8
3
62
256
370
-1
6
ByLayer
10
39.0726072235
20
19.9084877585
30
0.0
11
38.5793198058
21
19.4878167185
31
0.0
0
LINE
5
364
100
AcDbEntity
100
AcDbLine
8
3
62
256
370
-1
6
ByLayer
10
38.5793198058
20
19.4878167185
30
0.0
11
38.081634881
21
19.0698622175
31
0.0
0
LINE
5
365
100
AcDbEntity
100
AcDbLine
8
3
62
256
370
-1
6
ByLayer
10
38.081634881
20
19.0698622175
30
0.0
11
37.5796570702
21
18.6547037751
31
0.0
0
LINE
5
366
100
AcDbEntity
100
AcDbLine
8
3
62
256
370
-1
6
ByLayer
10
37.5796570702
20
18.6547037751
30
0.0
11
37.0734922167
21
18.2424197425
31
0.0
0
LINE
5
367
100
AcDbEntity
100
AcDbLine
8
3
62
256
370
-1
6
ByLayer
10
37.0734922167
20
18.2424197425
30
0.0
11
36.5632473592
21
17.8330872809
31
0.0
0
LINE
5
368
100
AcDbEntity
100
AcDbLine
8
3
62
256
370
-1
6
ByLayer
10
36.5632473592
20
17.8330872809
30
0.0
11
36.0490307046
21
17.4267823389
31
0.0
0
LINE
5
369
100
AcDbEntity
100
AcDbLine
8
3
62
256
370
-1
6
ByLayer
10
36.0490307046
20
17.4267823389
30
0.0
11
35.5309516005
21
17.023579632
31
0.0
0
LINE
5
370
100
AcDbEntity
100
AcDbLine
8
3
62
256
370
-1
6
ByLayer
10
35.5309516005
20
17.023579632
30
0.0
11
35.0091205075
21
16.6235526209
31
0.0
0
LINE
5
371
100
AcDbEntity
100
AcDbLine
8
3
62
256
370
-1
6
ByLayer
10
35.0091205075
20
16.6235526209
30
0.0
11
34.4836489707
21
16.2267734915
31
0.0
0
LINE
5
372
100
AcDbEntity
100
AcDbLine
8
3
62
256
370
-1
6
ByLayer
10
34.4836489707
20
16.2267734915
30
0.0
11
33.9546495916
21
15.8333131345
31
0.0
0
LINE
5
373
100
AcDbEntity
100
AcDbLine
8
3
62
256
370
-1
6
ByLayer
10
33.9546495916
20
15.8333131345
30
0.0
11
33.4222359987
21
15.4432411259
31
0.0
0
LINE
5
374
100
AcDbEntity
100
AcDbLine
8
3
62
256
370
-1
6
ByLayer
10
33.4222359987
20
15.4432411259
30
0.0
11
32.8865228187
21
15.0566257075
31
0.0
0
LINE
5
375
100
AcDbEntity
100
AcDbLine
8
3
62
256
370
-1
6
ByLayer
10
32.8865228187
20
15.0566257075
30
0.0
11
32.347625647
21
14.6735337683
31
0.0
0
LINE
5
376
100
AcDbEntity
100
AcDbLine
8
3
62
256
370
-1
6
ByLayer
10
32.347625647
20
14.6735337683
30
0.0
11
31.8056610176
21
14.2940308261
31
0.0
0
LINE
5
377
100
AcDbEntity
100
AcDbLine
8
3
62
256
370
-1
6
ByLayer
10
31.8056610176
20
14.2940308261
30
0.0
11
31.2607463733
21
13.9181810095
31
0.0
0
LINE
5
378
100
AcDbEntity
100
AcDbLine
8
3
62
256
370
-1
6
ByLayer
10
31.2607463733
20
13.9181810095
30
0.0
11
30.713000035
21
13.5460470406
31
0.0
0
LINE
5
379
100
AcDbEntity
100
AcDbLine
8
3
62
256
370
-1
6
ByLayer
10
30.713000035
20
13.5460470406
30
0.0
11
30.1625411713
21
13.1776902179
31
0.0
0
LINE
5
380
100
AcDbEntity
100
AcDbLine
8
3
62
256
370
-1
6
ByLayer
10
30.1625411713
20
13.1776902179
30
0.0
11
29.6094897675
21
12.8131703996
31
0.0
0
LINE
5
381
100
AcDbEntity
100
AcDbLine
8
3
62
256
370
-1
6
ByLayer
10
29.6094897675
20
12.8131703996
30
0.0
11
29.0539665943
21
12.4525459881
31
0.0
0
LINE
5
382
100
AcDbEntity
100
AcDbLine
8
3
62
256
370
-1
6
ByLayer
10
29.0539665943
20
12.4525459881
30
0.0
11
28.4960931763
21
12.0958739137
31
0.0
0
LINE
5
383
100
AcDbEntity
100
AcDbLine
8
3
62
256
370
-1
6
ByLayer
10
28.4960931763
20
12.0958739137
30
0.0
11
27.9359917606
21
11.7432096202
31
0.0
0
LINE
5
384
100
AcDbEntity
100
AcDbLine
8
3
62
256
370
-1
6
ByLayer
10
27.9359917606
20
11.7432096202
30
0.0
11
27.3737852843
21
11.3946070497
31
0.0
0
LINE
5
385
100
AcDbEntity
100
AcDbLine
8
3
62
256
370
-1
6
ByLayer
10
27.3737852843
20
11.3946070497
30
0.0
11
26.809597343
21
11.0501186289
31
0.0
0
LINE
5
386
100
AcDbEntity
100
AcDbLine
8
3
62
256
370
-1
6
ByLayer
10
26.809597343
20
11.0501186289
30
0.0
11
26.2435521579
21
10.7097952553
31
0.0
0
LINE
5
387
100
AcDbEntity
100
AcDbLine
8
3
62
256
370
-1
6
ByLayer
10
26.2435521579
20
10.7097952553
30
0.0
11
25.6757745435
21
10.3736862842
31
0.0
0
LINE
5
388
100
AcDbEntity
100
AcDbLine
8
3
62
256
370
-1
6
ByLayer
10
25.6757745435
20
10.3736862842
30
0.0
11
25.1063898748
21
10.0418395158
31
0.0
0
LINE
5
389
100
AcDbEntity
100
AcDbLine
8
3
62
256
370
-1
6
ByLayer
10
25.1063898748
20
10.0418395158
30
0.0
11
24.535524054
21
9.71430118349
31
0.0
0
LINE
5
390
100
AcDbEntity
100
AcDbLine
8
3
62
256
370
-1
6
ByLayer
10
24.535524054
20
9.71430118349
30
0.0
11
23.9633034778
21
9.39111594183
31
0.0
0
LINE
5
391
100
AcDbEntity
100
AcDbLine
8
3
62
256
370
-1
6
ByLayer
10
23.9633034778
20
9.39111594183
30
0.0
11
23.3898550038
21
9.07232685578
31
0.0
0
LINE
5
392
100
AcDbEntity
100
AcDbLine
8
3
62
256
370
-1
6
ByLayer
10
23.3898550038
20
9.07232685578
30
0.0
11
22.8153059173
21
8.75797538997
31
0.0
0
LINE
5
393
100
AcDbEntity
100
AcDbLine
8
3
62
256
370
-1
6
ByLayer
10
22.8153059173
20
8.75797538997
30
0.0
11
22.239783897
21
8.44810139869
31
0.0
0
LINE
5
394
100
AcDbEntity
100
AcDbLine
8
3
62
256
370
-1
6
ByLayer
10
22.239783897
20
8.44810139869
30
0.0
11
21.6634169822
21
8.14274311632
31
0.0
0
LINE
5
395
100
AcDbEntity
100
AcDbLine
8
3
62
256
370
-1
6
ByLayer
10
21.6634169822
20
8.14274311632
30
0.0
11
21.0863335381
21
7.84193714836
31
0.0
0
LINE
5
396
100
AcDbEntity
100
AcDbLine
8
3
62
256
370
-1
6
ByLayer
10
21.0863335381
20
7.84193714836
30
0.0
11
20.5086622221
21
7.54571846293
31
0.0
0
LINE
5
397
100
AcDbEntity
100
AcDbLine
8
3
62
256
370
-1
6
ByLayer
10
20.5086622221
20
7.54571846293
30
0.0
11
19.9305319497
21
7.25412038279
31
0.0
0
LINE
5
398
100
AcDbEntity
100
AcDbLine
8
3
62
256
370
-1
6
ByLayer
10
19.9305319497
20
7.25412038279
30
0.0
11
19.3520718602
21
6.96717457797
31
0.0
0
LINE
5
399
100
AcDbEntity
100
AcDbLine
8
3
62
256
370
-1
6
ByLayer
10
19.3520718602
20
6.96717457797
30
0.0
11
18.7734112823
21
6.68491105886
31
0.0
0
LINE
5
400
100
AcDbEntity
100
AcDbLine
8
3
62
256
370
-1
6
ByLayer
10
18.7734112823
20
6.68491105886
30
0.0
11
18.1946796999
21
6.40735816983
31
0.0
0
LINE
5
401
100
AcDbEntity
100
AcDbLine
8
3
62
256
370
-1
6
ByLayer
10
18.1946796999
20
6.40735816983
30
0.0
11
17.6160067173
21
6.13454258347
31
0.0
0
LINE
5
402
100
AcDbEntity
100
AcDbLine
8
3
62
256
370
-1
6
ByLayer
10
17.6160067173
20
6.13454258347
30
0.0
11
17.0375220251
21
5.86648929526
31
0.0
0
LINE
5
403
100
AcDbEntity
100
AcDbLine
8
3
62
256
370
-1
6
ByLayer
10
17.0375220251
20
5.86648929526
30
0.0
11
16.4593553651
21
5.60322161889
31
0.0
0
LINE
5
404
100
AcDbEntity
100
AcDbLine
8
3
62
256
370
-1
6
ByLayer
10
16.4593553651
20
5.60322161889
30
0.0
11
15.8816364962
21
5.34476118201
31
0.0
0
LINE
5
405
100
AcDbEntity
100
AcDbLine
8
3
62
256
370
-1
6
ByLayer
10
15.8816364962
20
5.34476118201
30
0.0
11
15.3044951593
21
5.09112792263
31
0.0
0
LINE
5
406
100
AcDbEntity
100
AcDbLine
8
3
62
256
370
-1
6
ByLayer
10
15.3044951593
20
5.09112792263
30
0.0
11
14.7280610428
21
4.84234008598
31
0.0
0
LINE
5
407
100
AcDbEntity
100
AcDbLine
8
3
62
256
370
-1
6
ByLayer
10
14.7280610428
20
4.84234008598
30
0.0
11
14.152463748
21
4.59841422196
31
0.0
0
LINE
5
408
100
AcDbEntity
100
AcDbLine
8
3
62
256
370
-1
6
ByLayer
10
14.152463748
20
4.59841422196
30
0.0
11
13.5778327543
21
4.35936518313
31
0.0
0
LINE
5
409
100
AcDbEntity
100
AcDbLine
8
3
62
256
370
-1
6
ByLayer
10
13.5778327543
20
4.35936518313
30
0.0
11
13.0042973843
21
4.12520612322
31
0.0
0
LINE
5
410
100
AcDbEntity
100
AcDbLine
8
3
62
256
370
-1
6
ByLayer
10
13.0042973843
20
4.12520612322
30
0.0
11
12.4319867696
21
3.89594849621
31
0.0
0
LINE
5
411
100
AcDbEntity
100
AcDbLine
8
3
62
256
370
-1
6
ByLayer
10
12.4319867696
20
3.89594849621
30
0.0
11
11.8610298159
21
3.67160205596
31
0.0
0
LINE
5
412
100
AcDbEntity
100
AcDbLine
8
3
62
256
370
-1
6
ByLayer
10
11.8610298159
20
3.67160205596
30
0.0
11
11.2915551683
21
3.45217485633
31
0.0
0
LINE
5
413
100
AcDbEntity
100
AcDbLine
8
3
62
256
370
-1
6
ByLayer
10
11.2915551683
20
3.45217485633
30
0.0
11
10.7236911769
21
3.23767325197
31
0.0
0
LINE
5
414
100
AcDbEntity
100
AcDbLine
8
3
62
256
370
-1
6
ByLayer
10
10.7236911769
20
3.23767325197
30
0.0
11
10.1575658624
21
3.02810189948
31
0.0
0
LINE
5
415
100
AcDbEntity
100
AcDbLine
8
3
62
256
370
-1
6
ByLayer
10
10.1575658624
20
3.02810189948
30
0.0
11
9.59330688153
21
2.82346375927
31
0.0
0
LINE
5
416
100
AcDbEntity
100
AcDbLine
8
3
62
256
370
-1
6
ByLayer
10
9.59330688153
20
2.82346375927
30
0.0
11
9.03104149263
21
2.62376009787
31
0.0
0
LINE
5
417
100
AcDbEntity
100
AcDbLine
8
3
62
256
370
-1
6
ByLayer
10
9.03104149263
20
2.62376009787
30
0.0
11
8.47089652167
21
2.42899049083
31
0.0
0
LINE
5
418
100
AcDbEntity
100
AcDbLine
8
3
62
256
370
-1
6
ByLayer
10
8.47089652167
20
2.42899049083
30
0.0
11
7.91299832791
21
2.23915282612
31
0.0
0
LINE
5
419
100
AcDbEntity
100
AcDbLine
8
3
62
256
370
-1
6
ByLayer
10
7.91299832791
20
2.23915282612
30
0.0
11
7.35747276991
21
2.05424330811
31
0.0
0
LINE
5
420
100
AcDbEntity
100
AcDbLine
8
3
62
256
370
-1
6
ByLayer
10
7.35747276991
20
2.05424330811
30
0.0
11
6.80444517164
21
1.87425646206
31
0.0
0
LINE
5
421
100
AcDbEntity
100
AcDbLine
8
3
62
256
370
-1
6
ByLayer
10
6.80444517164
20
1.87425646206
30
0.0
11
6.25404028861
21
1.69918513917
31
0.0
0
LINE
5
422
100
AcDbEntity
100
AcDbLine
8
3
62
256
370
-1
6
ByLayer
10
6.25404028861
20
1.69918513917
30
0.0
11
5.70638227434
21
1.52902052211
31
0.0
0
LINE
5
423
100
AcDbEntity
100
AcDbLine
8
3
62
256
370
-1
6
ByLayer
10
5.70638227434
20
1.52902052211
30
0.0
11
5.16159464673
21
1.36375213119
31
0.0
0
LINE
5
424
100
AcDbEntity
100
AcDbLine
8
3
62
256
370
-1
6
ByLayer
10
5.16159464673
20
1.36375213119
30
0.0
11
4.61980025483
21
1.20336783092
31
0.0
0
LINE
5
425
100
AcDbEntity
100
AcDbLine
8
3
62
256
370
-1
6
ByLayer
10
4.61980025483
20
1.20336783092
30
0.0
11
4.08112124559
21
1.04785383724
31
0.0
0
LINE
5
426
100
AcDbEntity
100
AcDbLine
8
3
62
256
370
-1
6
ByLayer
10
4.08112124559
20
1.04785383724
30
0.0
11
3.54567903092
21
0.897194725143
31
0.0
0
LINE
5
427
100
AcDbEntity
100
AcDbLine
8
3
62
256
370
-1
6
ByLayer
10
3.54567903092
20
0.897194725143
30
0.0
11
3.01359425483
21
0.751373436937
31
0.0
0
LINE
5
428
100
AcDbEntity
100
AcDbLine
8
3
62
256
370
-1
6
ByLayer
10
3.01359425483
20
0.751373436937
30
0.0
11
2.48498676088
21
0.610371290944
31
0.0
0
LINE
5
429
100
AcDbEntity
100
AcDbLine
8
3
62
256
370
-1
6
ByLayer
10
2.48498676088
20
0.610371290944
30
0.0
11
1.95997555971
21
0.474167990759
31
0.0
0
LINE
5
430
100
AcDbEntity
100
AcDbLine
8
3
62
256
370
-1
6
ByLayer
10
1.95997555971
20
0.474167990759
30
0.0
11
1.43867879694
21
0.342741635007
31
0.0
0
LINE
5
431
100
AcDbEntity
100
AcDbLine
8
3
62
256
370
-1
6
ByLayer
10
1.43867879694
20
0.342741635007
30
0.0
11
0.921213721131
21
0.216068727617
31
0.0
0
LINE
5
432
100
AcDbEntity
100
AcDbLine
8
3
62
256
370
-1
6
ByLayer
10
0.921213721131
20
0.216068727617
30
0.0
11
0.407696652103
21
0.094124188599
31
0.0
0
LINE
5
433
100
AcDbEntity
100
AcDbLine
8
3
62
256
370
-1
6
ByLayer
10
0.407696652103
20
0.094124188599
30
0.0
11
-0.101757050549
21
-0.0231186346704
31
0.0
0
LINE
5
434
100
AcDbEntity
100
AcDbLine
8
3
62
256
370
-1
6
ByLayer
10
-0.101757050549
20
-0.0231186346704
30
0.0
11
-0.607033018683
21
-0.135687955669
31
0.0
0
LINE
5
435
100
AcDbEntity
100
AcDbLine
8
3
62
256
370
-1
6
ByLayer
10
-0.607033018683
20
-0.135687955669
30
0.0
11
-1.10801790657
21
-0.243613536447
31
0.0
0
LINE
5
436
100
AcDbEntity
100
AcDbLine
8
3
62
256
370
-1
6
ByLayer
10
-1.10801790657
20
-0.243613536447
30
0.0
11
-1.6045994216
21
-0.346926674862
31
0.0
0
LINE
5
437
100
AcDbEntity
100
AcDbLine
8
3
62
256
370
-1
6
ByLayer
10
-1.6045994216
20
-0.346926674862
30
0.0
11
-2.09666635465
21
-0.445660191314
31
0.0
0
LINE
5
438
100
AcDbEntity
100
AcDbLine
8
3
62
256
370
-1
6
ByLayer
10
-2.09666635465
20
-0.445660191314
30
0.0
11
-2.58410861026
21
-0.53984841501
31
0.0
0
LINE
5
439
100
AcDbEntity
100
AcDbLine
8
3
62
256
370
-1
6
ByLayer
10
-2.58410861026
20
-0.53984841501
30
0.0
11
-3.06681723639
21
-0.629527169741
31
0.0
0
LINE
5
440
100
AcDbEntity
100
AcDbLine
8
3
62
256
370
-1
6
ByLayer
10
-3.06681723639
20
-0.629527169741
30
0.0
11
-3.544684454
21
-0.714733759188
31
0.0
0
LINE
5
441
100
AcDbEntity
100
AcDbLine
8
3
62
256
370
-1
6
ByLayer
10
-3.544684454
20
-0.714733759188
30
0.0
11
-4.01760368619
21
-0.795506951761
31
0.0
0
LINE
5
442
100
AcDbEntity
100
AcDbLine
8
3
62
256
370
-1
6
ByLayer
10
-4.01760368619
20
-0.795506951761
30
0.0
11
-4.48546958709
21
-0.871886964967
31
0.0
0
LINE
5
443
100
AcDbEntity
100
AcDbLine
8
3
62
256
370
-1
6
ByLayer
10
-4.48546958709
20
-0.871886964967
30
0.0
11
-4.94817807042
21
-0.943915449327
31
0.0
0
LINE
5
444
100
AcDbEntity
100
AcDbLine
8
3
62
256
370
-1
6
ByLayer
10
-4.94817807042
20
-0.943915449327
30
0.0
11
-5.40562633766
21
-1.01163547184
31
0.0
0
LINE
5
445
100
AcDbEntity
100
AcDbLine
8
3
62
256
370
-1
6
ByLayer
10
-5.40562633766
20
-1.01163547184
30
0.0
11
-5.85771290591
21
-1.07509149897
31
0.0
0
LINE
5
446
100
AcDbEntity
100
AcDbLine
8
3
62
256
370
-1
6
ByLayer
10
-5.85771290591
20
-1.07509149897
30
0.0
11
-6.30433763536
21
-1.13432937925
31
0.0
0
LINE
5
447
100
AcDbEntity
100
AcDbLine
8
3
62
256
370
-1
6
ByLayer
10
-6.30433763536
20
-1.13432937925
30
0.0
11
-6.74540175646
21
-1.18939632538
31
0.0
0
LINE
5
448
100
AcDbEntity
100
AcDbLine
8
3
62
256
370
-1
6
ByLayer
10
-6.74540175646
20
-1.18939632538
30
0.0
11
-7.18080789661
21
-1.24034089596
31
0.0
0
LINE
5
449
100
AcDbEntity
100
AcDbLine
8
3
62
256
370
-1
6
ByLayer
10
-7.18080789661
20
-1.24034089596
30
0.0
11
-7.61046010657
21
-1.28721297671
31
0.0
0
LINE
5
450
100
AcDbEntity
100
AcDbLine
8
3
62
256
370
-1
6
ByLayer
10
-7.61046010657
20
-1.28721297671
30
0.0
11
-8.03426388644
21
-1.3300637614
31
0.0
0
LINE
5
451
100
AcDbEntity
100
AcDbLine
8
3
62
256
370
-1
6
ByLayer
10
-8.03426388644
20
-1.3300637614
30
0.0
11
-8.4521262112
21
-1.3689457322
31
0.0
0
LINE
5
452
100
AcDbEntity
100
AcDbLine
8
3
62
256
370
-1
6
ByLayer
10
-8.4521262112
20
-1.3689457322
30
0.0
11
-8.86395555592
21
-1.40391263979
31
0.0
0
LINE
5
453
100
AcDbEntity
100
AcDbLine
8
3
62
256
370
-1
6
ByLayer
10
-8.86395555592
20
-1.40391263979
30
0.0
11
-9.26966192053
21
-1.43501948295
31
0.0
0
LINE
5
454
100
AcDbEntity
100
AcDbLine
8
3
62
256
370
-1
6
ByLayer
10
-9.26966192053
20
-1.43501948295
30
0.0
11
-9.66915685413
21
-1.46232248783
31
0.0
0
LINE
5
455
100
AcDbEntity
100
AcDbLine
8
3
62
256
370
-1
6
ByLayer
10
-9.66915685413
20
-1.46232248783
30
0.0
11
-10.062353479
21
-1.48587908677
31
0.0
0
LINE
5
456
100
AcDbEntity
100
AcDbLine
8
3
62
256
370
-1
6
ByLayer
10
-10.062353479
20
-1.48587908677
30
0.0
11
-10.4491665138
21
-1.50574789679
31
0.0
0
LINE
5
457
100
AcDbEntity
100
AcDbLine
8
3
62
256
370
-1
6
ByLayer
10
-10.4491665138
20
-1.50574789679
30
0.0
11
-10.8295122972
21
-1.52198869767
31
0.0
0
LINE
5
458
100
AcDbEntity
100
AcDbLine
8
3
62
256
370
-1
6
ByLayer
10
-10.8295122972
20
-1.52198869767
30
0.0
11
-11.2033088098
21
-1.53466240972
31
0.0
0
LINE
5
459
100
AcDbEntity
100
AcDbLine
8
3
62
256
370
-1
6
ByLayer
10
-11.2033088098
20
-1.53466240972
30
0.0
11
-11.5704756967
21
-1.5438310711
31
0.0
0
LINE
5
460
100
AcDbEntity
100
AcDbLine
8
3
62
256
370
-1
6
ByLayer
10
-11.5704756967
20
-1.5438310711
30
0.0
11
-11.930934289
21
-1.5495578149
31
0.0
0
LINE
5
461
100
AcDbEntity
100
AcDbLine
8
3
62
256
370
-1
6
ByLayer
10
-11.930934289
20
-1.5495578149
30
0.0
11
-12.2846076252
21
-1.55190684574
31
0.0
0
LINE
5
462
100
AcDbEntity
100
AcDbLine
8
3
62
256
370
-1
6
ByLayer
10
-12.2846076252
20
-1.55190684574
30
0.0
11
-12.6314204717
21
-1.5509434162
31
0.0
0
LINE
5
463
100
AcDbEntity
100
AcDbLine
8
3
62
256
370
-1
6
ByLayer
10
-12.6314204717
20
-1.5509434162
30
0.0
11
-12.9712993434
21
-1.54673380274
31
0.0
0
LINE
5
464
100
AcDbEntity
100
AcDbLine
8
3
62
256
370
-1
6
ByLayer
10
-12.9712993434
20
-1.54673380274
30
0.0
11
-13.3041725229
21
-1.53934528146
31
0.0
0
LINE
5
465
100
AcDbEntity
100
AcDbLine
8
3
62
256
370
-1
6
ByLayer
10
-13.3041725229
20
-1.53934528146
30
0.0
11
-13.6299700807
21
-1.5288461034
31
0.0
0
LINE
5
466
100
AcDbEntity
100
AcDbLine
8
3
62
256
370
-1
6
ByLayer
10
-13.6299700807
20
-1.5288461034
30
0.0
11
-13.9486238929
21
-1.5153054697
31
0.0
0
LINE
5
467
100
AcDbEntity
100
AcDbLine
8
3
62
256
370
-1
6
ByLayer
10
-13.9486238929
20
-1.5153054697
30
0.0
11
-14.2600676605
21
-1.49879350629
31
0.0
0
LINE
5
468
100
AcDbEntity
100
AcDbLine
8
3
62
256
370
-1
6
ByLayer
10
-14.2600676605
20
-1.49879350629
30
0.0
11
-14.5642369264
21
-1.47938123839
31
0.0
0
LINE
5
469
100
AcDbEntity
100
AcDbLine
8
3
62
256
370
-1
6
ByLayer
10
-14.5642369264
20
-1.47938123839
30
0.0
11
-14.8610690932
21
-1.45714056472
31
0.0
0
LINE
5
470
100
AcDbEntity
100
AcDbLine
8
3
62
256
370
-1
6
ByLayer
10
-14.8610690932
20
-1.45714056472
30
0.0
11
-15.1505034399
21
-1.43214423144
31
0.0
0
LINE
5
471
100
AcDbEntity
100
AcDbLine
8
3
62
256
370
-1
6
ByLayer
10
-15.1505034399
20
-1.43214423144
30
0.0
11
-15.4324811375
21
-1.40446580576
31
0.0
0
LINE
5
472
100
AcDbEntity
100
AcDbLine
8
3
62
256
370
-1
6
ByLayer
10
-15.4324811375
20
-1.40446580576
30
0.0
11
-15.7069452658
21
-1.37417964938
31
0.0
0
LINE
5
473
100
AcDbEntity
100
AcDbLine
8
3
62
256
370
-1
6
ByLayer
10
-15.7069452658
20
-1.37417964938
30
0.0
11
-15.9738408277
21
-1.34136089164
31
0.0
0
LINE
5
474
100
AcDbEntity
100
AcDbLine
8
3
62
256
370
-1
6
ByLayer
10
-15.9738408277
20
-1.34136089164
30
0.0
11
-16.2331147639
21
-1.3060854024
31
0.0
0
LINE
5
475
100
AcDbEntity
100
AcDbLine
8
3
62
256
370
-1
6
ByLayer
10
-16.2331147639
20
-1.3060854024
30
0.0
11
-16.4847159676
21
-1.26842976478
31
0.0
0
LINE
5
476
100
AcDbEntity
100
AcDbLine
8
3
62
256
370
-1
6
ByLayer
10
-16.4847159676
20
-1.26842976478
30
0.0
11
-16.7285952974
21
-1.22847124758
31
0.0
0
LINE
5
477
100
AcDbEntity
100
AcDbLine
8
3
62
256
370
-1
6
ByLayer
10
-16.7285952974
20
-1.22847124758
30
0.0
11
-16.9647055908
21
-1.18628777752
31
0.0
0
LINE
5
478
100
AcDbEntity
100
AcDbLine
8
3
62
256
370
-1
6
ByLayer
10
-16.9647055908
20
-1.18628777752
30
0.0
11
-17.1930016761
21
-1.14195791134
31
0.0
0
LINE
5
479
100
AcDbEntity
100
AcDbLine
8
3
62
256
370
-1
6
ByLayer
10
-17.1930016761
20
-1.14195791134
30
0.0
11
-17.4134403849
21
-1.09556080756
31
0.0
0
LINE
5
480
100
AcDbEntity
100
AcDbLine
8
3
62
256
370
-1
6
ByLayer
10
-17.4134403849
20
-1.09556080756
30
0.0
11
-17.625980563
21
-1.04717619822
31
0.0
0
LINE
5
481
100
AcDbEntity
100
AcDbLine
8
3
62
256
370
-1
6
ByLayer
10
-17.625980563
20
-1.04717619822
30
0.0
11
-17.8305830815
21
-0.996884360313
31
0.0
0
LINE
5
482
100
AcDbEntity
100
AcDbLine
8
3
62
256
370
-1
6
ByLayer
10
-17.8305830815
20
-0.996884360313
30
0.0
11
-18.0272108465
21
-0.94476608713
31
0.0
0
LINE
5
483
100
AcDbEntity
100
AcDbLine
8
3
62
256
370
-1
6
ByLayer
10
-18.0272108465
20
-0.94476608713
30
0.0
11
-18.2158288093
21
-0.890902659389
31
0.0
0
LINE
5
484
100
AcDbEntity
100
AcDbLine
8
3
62
256
370
-1
6
ByLayer
10
-18.2158288093
20
-0.890902659389
30
0.0
11
-18.3964039753
21
-0.835375816255
31
0.0
0
LINE
5
485
100
AcDbEntity
100
AcDbLine
8
3
62
256
370
-1
6
ByLayer
10
-18.3964039753
20
-0.835375816255
30
0.0
11
-18.5689054123
21
-0.778267726201
31
0.0
0
LINE
5
486
100
AcDbEntity
100
AcDbLine
8
3
62
256
370
-1
6
ByLayer
10
-18.5689054123
20
-0.778267726201
30
0.0
11
-18.7333042585
21
-0.719660957737
31
0.0
0
LINE
5
487
100
AcDbEntity
100
AcDbLine
8
3
62
256
370
-1
6
ByLayer
10
-18.7333042585
20
-0.719660957737
30
0.0
11
-18.88957373
21
-0.659638450024
31
0.0
0
LINE
5
488
100
AcDbEntity
100
AcDbLine
8
3
62
256
370
-1
6
ByLayer
10
-18.88957373
20
-0.659638450024
30
0.0
11
-19.0376891274
21
-0.598283483368
31
0.0
0
LINE
5
489
100
AcDbEntity
100
AcDbLine
8
3
62
256
370
-1
6
ByLayer
10
-19.0376891274
20
-0.598283483368
30
0.0
11
-19.1776278419
21
-0.535679649614
31
0.0
0
LINE
5
490
100
AcDbEntity
100
AcDbLine
8
3
62
256
370
-1
6
ByLayer
10
-19.1776278419
20
-0.535679649614
30
0.0
11
-19.309369361
21
-0.471910822446
31
0.0
0
LINE
5
491
100
AcDbEntity
100
AcDbLine
8
3
62
256
370
-1
6
ByLayer
10
-19.309369361
20
-0.471910822446
30
0.0
11
-19.4328952736
21
-0.407061127602
31
0.0
0
LINE
5
492
100
AcDbEntity
100
AcDbLine
8
3
62
256
370
-1
6
ByLayer
10
-19.4328952736
20
-0.407061127602
30
0.0
11
-19.5481892743
21
-0.341214913012
31
0.0
0
LINE
5
493
100
AcDbEntity
100
AcDbLine
8
3
62
256
370
-1
6
ByLayer
10
-19.5481892743
20
-0.341214913012
30
0.0
11
-19.655237167
21
-0.274456718875
31
0.0
0
LINE
5
494
100
AcDbEntity
100
AcDbLine
8
3
62
256
370
-1
6
ByLayer
10
-19.655237167
20
-0.274456718875
30
0.0
11
-19.7540268686
21
-0.206871247676
31
0.0
0
LINE
5
495
100
AcDbEntity
100
AcDbLine
8
3
62
256
370
-1
6
ByLayer
10
-19.7540268686
20
-0.206871247676
30
0.0
11
-19.8445484112
21
-0.138543334158
31
0.0
0
LINE
5
496
100
AcDbEntity
100
AcDbLine
8
3
62
256
370
-1
6
ByLayer
10
-19.8445484112
20
-0.138543334158
30
0.0
11
-19.9267939444
21
-0.0695579152536
31
0.0
0
LINE
5
497
100
AcDbEntity
100
AcDbLine
8
3
62
256
370
-1
6
ByLayer
10
-19.9267939444
20
-0.0695579152536
30
0.0
11
-20.0007577367
21
-1.22465275028e-15
31
0.0
0
LINE
5
498
100
AcDbEntity
100
AcDbLine
8
3
62
256
370
-1
6
ByLayer
10
-20.0007577367
20
-1.22465275028e-15
30
0.0
11
-20.0664361763
21
0.0700453605776
31
0.0
0
LINE
5
499
100
AcDbEntity
100
AcDbLine
8
3
62
256
370
-1
6
ByLayer
10
-20.0664361763
20
0.0700453605776
30
0.0
11
-20.1238277714
21
0.140493103581
31
0.0
0
LINE
5
500
100
AcDbEntity
100
AcDbLine
8
3
62
256
370
-1
6
ByLayer
10
-20.1238277714
20
0.140493103581
30
0.0
11
-20.1729331499
21
0.211258184357
31
0.0
0
LINE
5
501
100
AcDbEntity
100
AcDbLine
8
3
62
256
370
-1
6
ByLayer
10
-20.1729331499
20
0.211258184357
30
0.0
11
-20.2137550584
21
0.282255606601
31
0.0
0
LINE
5
502
100
AcDbEntity
100
AcDbLine
8
3
62
256
370
-1
6
ByLayer
10
-20.2137550584
20
0.282255606601
30
0.0
11
-20.2462983608
21
0.353400452443
31
0.0
0
LINE
5
503
100
AcDbEntity
100
AcDbLine
8
3
62
256
370
-1
6
ByLayer
10
-20.2462983608
20
0.353400452443
30
0.0
11
-20.2705700361
21
0.424607912503
31
0.0
0
LINE
5
504
100
AcDbEntity
100
AcDbLine
8
3
62
256
370
-1
6
ByLayer
10
-20.2705700361
20
0.424607912503
30
0.0
11
-20.2865791758
21
0.495793315903
31
0.0
0
LINE
5
505
100
AcDbEntity
100
AcDbLine
8
3
62
256
370
-1
6
ByLayer
10
-20.2865791758
20
0.495793315903
30
0.0
11
-20.2943369805
21
0.566872160234
31
0.0
0
LINE
5
506
100
AcDbEntity
100
AcDbLine
8
3
62
256
370
-1
6
ByLayer
10
-20.2943369805
20
0.566872160234
30
0.0
11
-20.2938567561
21
0.637760141461
31
0.0
0
LINE
5
507
100
AcDbEntity
100
AcDbLine
8
3
62
256
370
-1
6
ByLayer
10
-20.2938567561
20
0.637760141461
30
0.0
11
-20.285153909
21
0.708373183762
31
0.0
0
LINE
5
508
100
AcDbEntity
100
AcDbLine
8
3
62
256
370
-1
6
ByLayer
10
-20.285153909
20
0.708373183762
30
0.0
11
-20.2682459418
21
0.778627469283
31
0.0
0
LINE
5
509
100
AcDbEntity
100
AcDbLine
8
3
62
256
370
-1
6
ByLayer
10
-20.2682459418
20
0.778627469283
30
0.0
11
-20.2431524469
21
0.848439467818
31
0.0
0
LINE
5
510
100
AcDbEntity
100
AcDbLine
8
3
62
256
370
-1
6
ByLayer
10
-20.2431524469
20
0.848439467818
30
0.0
11
-20.2098951006
21
0.917725966374
31
0.0
0
LINE
5
511
100
AcDbEntity
100
AcDbLine
8
3
62
256
370
-1
6
ByLayer
10
-20.2098951006
20
0.917725966374
30
0.0
11
-20.1684976562
21
0.986404098647
31
0.0
0
LINE
5
512
100
AcDbEntity
100
AcDbLine
8
3
62
256
370
-1
6
ByLayer
10
-20.1684976562
20
0.986404098647
30
0.0
11
-20.1189859367
21
1.05439137437
31
0.0
0
LINE
5
513
100
AcDbEntity
100
AcDbLine
8
3
62
256
370
-1
6
ByLayer
10
-20.1189859367
20
1.05439137437
30
0.0
11
-20.0613878269
21
1.12160570855
31
0.0
0
LINE
5
514
100
AcDbEntity
100
AcDbLine
8
3
62
256
370
-1
6
ByLayer
10
-20.0613878269
20
1.12160570855
30
0.0
11
-19.9957332646
21
1.18796545053
31
0.0
0
LINE
5
515
100
AcDbEntity
100
AcDbLine
8
3
62
256
370
-1
6
ByLayer
10
-19.9957332646
20
1.18796545053
30
0.0
11
-19.9220542315
21
1.25338941298
31
0.0
0
LINE
5
516
100
AcDbEntity
100
AcDbLine
8
3
62
256
370
-1
6
ByLayer
10
-19.9220542315
20
1.25338941298
30
0.0
11
-19.8403847438
21
1.31779690068
31
0.0
0
LINE
5
517
100
AcDbEntity
100
AcDbLine
8
3
62
256
370
-1
6
ByLayer
10
-19.8403847438
20
1.31779690068
30
0.0
11
-19.7507608418
21
1.38110773912
31
0.0
0
LINE
5
518
100
AcDbEntity
100
AcDbLine
8
3
62
256
370
-1
6
ByLayer
10
-19.7507608418
20
1.38110773912
30
0.0
11
-19.6532205787
21
1.44324230301
31
0.0
0
LINE
5
519
100
AcDbEntity
100
AcDbLine
8
3
62
256
370
-1
6
ByLayer
10
-19.6532205787
20
1.44324230301
30
0.0
11
-19.54780401
21
1.50412154453
31
0.0
0
LINE
5
520
100
AcDbEntity
100
AcDbLine
8
3
62
256
370
-1
6
ByLayer
10
-19.54780401
20
1.50412154453
30
0.0
11
-19.4345531807
21
1.56366702144
31
0.0
0
LINE
5
521
100
AcDbEntity
100
AcDbLine
8
3
62
256
370
-1
6
ByLayer
10
-19.4345531807
20
1.56366702144
30
0.0
11
-19.3135121134
21
1.62180092494
31
0.0
0
LINE
5
522
100
AcDbEntity
100
AcDbLine
8
3
62
256
370
-1
6
ByLayer
10
-19.3135121134
20
1.62180092494
30
0.0
11
-19.1847267951
21
1.67844610741
31
0.0
0
LINE
5
523
100
AcDbEntity
100
AcDbLine
8
3
62
256
370
-1
6
ByLayer
10
-19.1847267951
20
1.67844610741
30
0.0
11
-19.0482451632
21
1.73352610984
31
0.0
0
LINE
5
524
100
AcDbEntity
100
AcDbLine
8
3
62
256
370
-1
6
ByLayer
10
-19.0482451632
20
1.73352610984
30
0.0
11
-18.9041170922
21
1.78696518909
31
0.0
0
LINE
5
525
100
AcDbEntity
100
AcDbLine
8
3
62
256
370
-1
6
ByLayer
10
-18.9041170922
20
1.78696518909
30
0.0
11
-18.7523943781
21
1.83868834487
31
0.0
0
LINE
5
526
100
AcDbEntity
100
AcDbLine
8
3
62
256
370
-1
6
ByLayer
10
-18.7523943781
20
1.83868834487
30
0.0
11
-18.5931307238
21
1.88862134657
31
0.0
0
LINE
5
527
100
AcDbEntity
100
AcDbLine
8
3
62
256
370
-1
6
ByLayer
10
-18.5931307238
20
1.88862134657
30
0.0
11
-18.4263817232
21
1.93669075973
31
0.0
0
LINE
5
528
100
AcDbEntity
100
AcDbLine
8
3
62
256
370
-1
6
ByLayer
10
-18.4263817232
20
1.93669075973
30
0.0
11
-18.2522048446
21
1.98282397228
31
0.0
0
LINE
5
529
100
AcDbEntity
100
AcDbLine
8
3
62
256
370
-1
6
ByLayer
10
-18.2522048446
20
1.98282397228
30
0.0
11
-18.0706594145
21
2.0269492206
31
0.0
0
LINE
5
530
100
AcDbEntity
100
AcDbLine
8
3
62
256
370
-1
6
ByLayer
10
-18.0706594145
20
2.0269492206
30
0.0
11
-17.8818065998
21
2.06899561516
31
0.0
0
LINE
5
531
100
AcDbEntity
100
AcDbLine
8
3
62
256
370
-1
6
ByLayer
10
-17.8818065998
20
2.06899561516
30
0.0
11
-17.6857093903
21
2.108893166
31
0.0
0
LINE
5
532
100
AcDbEntity
100
AcDbLine
8
3
62
256
370
-1
6
ByLayer
10
-17.6857093903
20
2.108893166
30
0.0
11
-17.48243258
21
2.14657280785
31
0.0
0
LINE
5
533
100
AcDbEntity
100
AcDbLine
8
3
62
256
370
-1
6
ByLayer
10
-17.48243258
20
2.14657280785
30
0.0
11
-17.2720427487
21
2.18196642494
31
0.0
0
LINE
5
534
100
AcDbEntity
100
AcDbLine
8
3
62
256
370
-1
6
ByLayer
10
-17.2720427487
20
2.18196642494
30
0.0
11
-17.0546082425
21
2.21500687558
31
0.0
0
LINE
5
535
100
AcDbEntity
100
AcDbLine
8
3
62
256
370
-1
6
ByLayer
10
-17.0546082425
20
2.21500687558
30
0.0
11
-16.8301991539
21
2.24562801632
31
0.0
0
LINE
5
536
100
AcDbEntity
100
AcDbLine
8
3
62
256
370
-1
6
ByLayer
10
-16.8301991539
20
2.24562801632
30
0.0
11
-16.5988873014
21
2.27376472586
31
0.0
0
LINE
5
537
100
AcDbEntity
100
AcDbLine
8
3
62
256
370
-1
6
ByLayer
10
-16.5988873014
20
2.27376472586
30
0.0
11
-16.3607462093
21
2.29935292861
31
0.0
0
LINE
5
538
100
AcDbEntity
100
AcDbLine
8
3
62
256
370
-1
6
ByLayer
10
-16.3607462093
20
2.29935292861
30
0.0
11
-16.1158510857
21
2.32232961788
31
0.0
0
LINE
5
539
100
AcDbEntity
100
AcDbLine
8
3
62
256
370
-1
6
ByLayer
10
-16.1158510857
20
2.32232961788
30
0.0
11
-15.8642788015
21
2.3426328788
31
0.0
0
LINE
5
540
100
AcDbEntity
100
AcDbLine
8
3
62
256
370
-1
6
ByLayer
10
-15.8642788015
20
2.3426328788
30
0.0
11
-15.6061078677
21
2.36020191075
31
0.0
0
LINE
5
541
100
AcDbEntity
100
AcDbLine
8
3
62
256
370
-1
6
ByLayer
10
-15.6061078677
20
2.36020191075
30
0.0
11
-15.341418413
21
2.37497704959
31
0.0
0
LINE
5
542
100
AcDbEntity
100
AcDbLine
8
3
62
256
370
-1
6
ByLayer
10
-15.341418413
20
2.37497704959
30
0.0
11
-15.0702921607
21
2.3868997894
31
0.0
0
LINE
5
543
100
AcDbEntity
100
AcDbLine
8
3
62
256
370
-1
6
ByLayer
10
-15.0702921607
20
2.3868997894
30
0.0
11
-14.7928124055
21
2.39591280391
31
0.0
0
LINE
5
544
100
AcDbEntity
100
AcDbLine
8
3
62
256
370
-1
6
ByLayer
10
-14.7928124055
20
2.39591280391
30
0.0
11
-14.5090639889
21
2.40195996749
31
0.0
0
LINE
5
545
100
AcDbEntity
100
AcDbLine
8
3
62
256
370
-1
6
ByLayer
10
-14.5090639889
20
2.40195996749
30
0.0
11
-14.2191332757
21
2.40498637583
31
0.0
0
LINE
5
546
100
AcDbEntity
100
AcDbLine
8
3
62
256
370
-1
6
ByLayer
10
-14.2191332757
20
2.40498637583
30
0.0
11
-13.9231081284
21
2.40493836615
31
0.0
0
LINE
5
547
100
AcDbEntity
100
AcDbLine
8
3
62
256
370
-1
6
ByLayer
10
-13.9231081284
20
2.40493836615
30
0.0
11
-13.6210778826
21
2.40176353703
31
0.0
0
LINE
5
548
100
AcDbEntity
100
AcDbLine
8
3
62
256
370
-1
6
ByLayer
10
-13.6210778826
20
2.40176353703
30
0.0
11
-13.3131333212
21
2.39541076787
31
0.0
0
LINE
5
549
100
AcDbEntity
100
AcDbLine
8
3
62
256
370
-1
6
ByLayer
10
-13.3131333212
20
2.39541076787
30
0.0
11
-12.9993666484
21
2.38583023787
31
0.0
0
LINE
5
550
100
AcDbEntity
100
AcDbLine
8
3
62
256
370
-1
6
ByLayer
10
-12.9993666484
20
2.38583023787
30
0.0
11
-12.6798714635
21
2.37297344462
31
0.0
0
LINE
5
551
100
AcDbEntity
100
AcDbLine
8
3
62
256
370
-1
6
ByLayer
10
-12.6798714635
20
2.37297344462
30
0.0
11
-12.354742734
21
2.3567932223
31
0.0
0
LINE
5
552
100
AcDbEntity
100
AcDbLine
8
3
62
256
370
-1
6
ByLayer
10
-12.354742734
20
2.3567932223
30
0.0
11
-12.0240767685
21
2.33724375936
31
0.0
0
LINE
5
553
100
AcDbEntity
100
AcDbLine
8
3
62
256
370
-1
6
ByLayer
10
-12.0240767685
20
2.33724375936
30
0.0
11
-11.6879711892
21
2.31428061582
31
0.0
0
LINE
5
554
100
AcDbEntity
100
AcDbLine
8
3
62
256
370
-1
6
ByLayer
10
-11.6879711892
20
2.31428061582
30
0.0
11
-11.3465249043
21
2.28786074016
31
0.0
0
LINE
5
555
100
AcDbEntity
100
AcDbLine
8
3
62
256
370
-1
6
ByLayer
10
-11.3465249043
20
2.28786074016
30
0.0
11
-10.9998380795
21
2.25794248565
31
0.0
0
LINE
5
556
100
AcDbEntity
100
AcDbLine
8
3
62
256
370
-1
6
ByLayer
10
-10.9998380795
20
2.25794248565
30
0.0
11
-10.6480121096
21
2.22448562633
31
0.0
0
LINE
5
557
100
AcDbEntity
100
AcDbLine
8
3
62
256
370
-1
6
ByLayer
10
-10.6480121096
20
2.22448562633
30
0.0
11
-10.2911495899
21
2.18745137246
31
0.0
0
LINE
5
558
100
AcDbEntity
100
AcDbLine
8
3
62
256
370
-1
6
ByLayer
10
-10.2911495899
20
2.18745137246
30
0.0
11
-9.92935428658
21
2.14680238557
31
0.0
0
LINE
5
559
100
AcDbEntity
100
AcDbLine
8
3
62
256
370
-1
6
ByLayer
10
-9.92935428658
20
2.14680238557
30
0.0
11
-9.56273110758
21
2.10250279295
31
0.0
0
LINE
5
560
100
AcDbEntity
100
AcDbLine
8
3
62
256
370
-1
6
ByLayer
10
-9.56273110758
20
2.10250279295
30
0.0
11
-9.19138607264
21
2.05451820177
31
0.0
0
LINE
5
561
100
AcDbEntity
100
AcDbLine
8
3
62
256
370
-1
6
ByLayer
10
-9.19138607264
20
2.05451820177
30
0.0
11
-8.81542628327
21
2.0028157126
31
0.0
0
LINE
5
562
100
AcDbEntity
100
AcDbLine
8
3
62
256
370
-1
6
ByLayer
10
-8.81542628327
20
2.0028157126
30
0.0
11
-8.43495989235
21
1.94736393256
31
0.0
0
LINE
5
563
100
AcDbEntity
100
AcDbLine
8
3
62
256
370
-1
6
ByLayer
10
-8.43495989235
20
1.94736393256
30
0.0
11
-8.05009607354
21
1.88813298793
31
0.0
0
LINE
5
564
100
AcDbEntity
100
AcDbLine
8
3
62
256
370
-1
6
ByLayer
10
-8.05009607354
20
1.88813298793
30
0.0
11
-7.66094499031
21
1.82509453622
31
0.0
0
LINE
5
565
100
AcDbEntity
100
AcDbLine
8
3
62
256
370
-1
6
ByLayer
10
-7.66094499031
20
1.82509453622
30
0.0
11
-7.26761776476
21
1.75822177784
31
0.0
0
LINE
5
566
100
AcDbEntity
100
AcDbLine
8
3
62
256
370
-1
6
ByLayer
10
-7.26761776476
20
1.75822177784
30
0.0
11
-6.87022644623
21
1.68748946718
31
0.0
0
LINE
5
567
100
AcDbEntity
100
AcDbLine
8
3
62
256
370
-1
6
ByLayer
10
-6.87022644623
20
1.68748946718
30
0.0
11
-6.46888397962
21
1.61287392326
31
0.0
0
LINE
5
568
100
AcDbEntity
100
AcDbLine
8
3
62
256
370
-1
6
ByLayer
10
-6.46888397962
20
1.61287392326
30
0.0
11
-6.06370417348
21
1.53435303981
31
0.0
0
LINE
5
569
100
AcDbEntity
100
AcDbLine
8
3
62
256
370
-1
6
ByLayer
10
-6.06370417348
20
1.53435303981
30
0.0
11
-5.65480166787
21
1.45190629484
31
0.0
0
LINE
5
570
100
AcDbEntity
100
AcDbLine
8
3
62
256
370
-1
6
ByLayer
10
-5.65480166787
20
1.45190629484
30
0.0
11
-5.24229190206
21
1.36551475979
31
0.0
0
LINE
5
571
100
AcDbEntity
100
AcDbLine
8
3
62
256
370
-1
6
ByLayer
10
-5.24229190206
20
1.36551475979
30
0.0
11
-4.82629108197
21
1.275161108
31
0.0
0
LINE
5
572
100
AcDbEntity
100
AcDbLine
8
3
62
256
370
-1
6
ByLayer
10
-4.82629108197
20
1.275161108
30
0.0
11
-4.40691614742
21
1.18082962281
31
0.0
0
LINE
5
573
100
AcDbEntity
100
AcDbLine
8
3
62
256
370
-1
6
ByLayer
10
-4.40691614742
20
1.18082962281
30
0.0
11
-3.98428473926
21
1.08250620507
31
0.0
0
LINE
5
574
100
AcDbEntity
100
AcDbLine
8
3
62
256
370
-1
6
ByLayer
10
-3.98428473926
20
1.08250620507
30
0.0
11
-3.55851516621
21
0.980178380071
31
0.0
0
LINE
5
575
100
AcDbEntity
100
AcDbLine
8
3
62
256
370
-1
6
ByLayer
10
-3.55851516621
20
0.980178380071
30
0.0
11
-3.12972637164
21
0.87383530408
31
0.0
0
LINE
5
576
100
AcDbEntity
100
AcDbLine
8
3
62
256
370
-1
6
ByLayer
10
-3.12972637164
20
0.87383530408
30
0.0
11
-2.69803790015
21
0.763467770213
31
0.0
0
LINE
5
577
100
AcDbEntity
100
AcDbLine
8
3
62
256
370
-1
6
ByLayer
10
-2.69803790015
20
0.763467770213
30
0.0
11
-2.26356986402
21
0.649068213851
31
0.0
0
LINE
5
578
100
AcDbEntity
100
AcDbLine
8
3
62
256
370
-1
6
ByLayer
10
-2.26356986402
20
0.649068213851
30
0.0
11
-1.82644290948
21
0.530630717492
31
0.0
0
LINE
5
579
100
AcDbEntity
100
AcDbLine
8
3
62
256
370
-1
6
ByLayer
10
-1.82644290948
20
0.530630717492
30
0.0
11
-1.38677818291
21
0.408151015072
31
0.0
0
LINE
5
580
100
AcDbEntity
100
AcDbLine
8
3
62
256
370
-1
6
ByLayer
10
-1.38677818291
20
0.408151015072
30
0.0
11
-0.944697296909
21
0.281626495751
31
0.0
0
LINE
5
581
100
AcDbEntity
100
AcDbLine
8
3
62
256
370
-1
6
ByLayer
10
-0.944697296909
20
0.281626495751
30
0.0
11
-0.500322296223
21
0.151056207151
31
0.0
0
LINE
5
582
100
AcDbEntity
100
AcDbLine
8
3
62
256
370
-1
6
ByLayer
10
-0.500322296223
20
0.151056207151
30
0.0
11
-0.0537756236341
21
0.0164408580595
31
0.0
0
LINE
5
583
100
AcDbEntity
100
AcDbLine
8
3
62
256
370
-1
6
ByLayer
10
-0.0537756236341
20
0.0164408580595
30
0.0
11
0.394819914285
21
-0.122217179412
31
0.0
0
LINE
5
584
100
AcDbEntity
100
AcDbLine
8
3
62
256
370
-1
6
ByLayer
10
0.394819914285
20
-0.122217179412
30
0.0
11
0.845341181469
21
-0.264913868214
31
0.0
0
LINE
5
585
100
AcDbEntity
100
AcDbLine
8
3
62
256
370
-1
6
ByLayer
10
0.845341181469
20
-0.264913868214
30
0.0
11
1.29766474673
21
-0.411643505288
31
0.0
0
LINE
5
586
100
AcDbEntity
100
AcDbLine
8
3
62
256
370
-1
6
ByLayer
10
1.29766474673
20
-0.411643505288
30
0.0
11
1.75166691817
21
-0.56239872104
31
0.0
0
LINE
5
587
100
AcDbEntity
100
AcDbLine
8
3
62
256
370
-1
6
ByLayer
10
1.75166691817
20
-0.56239872104
30
0.0
11
2.20722377768
21
-0.717170479361
31
0.0
0
LINE
5
588
100
AcDbEntity
100
AcDbLine
8
3
62
256
370
-1
6
ByLayer
10
2.20722377768
20
-0.717170479361
30
0.0
11
2.66421121541
21
-0.875948078188
31
0.0
0
LINE
5
589
100
AcDbEntity
100
AcDbLine
8
3
62
256
370
-1
6
ByLayer
10
2.66421121541
20
-0.875948078188
30
0.0
11
3.12250496435
21
-1.03871915062
31
0.0
0
LINE
5
590
100
AcDbEntity
100
AcDbLine
8
3
62
256
370
-1
6
ByLayer
10
3.12250496435
20
-1.03871915062
30
0.0
11
3.5819806348
21
-1.20546966657
31
0.0
0
LINE
5
591
100
AcDbEntity
100
AcDbLine
8
3
62
256
370
-1
6
ByLayer
10
3.5819806348
20
-1.20546966657
30
0.0
11
4.04251374902
21
-1.37618393495
31
0.0
0
LINE
5
592
100
AcDbEntity
100
AcDbLine
8
3
62
256
370
-1
6
ByLayer
10
4.04251374902
20
-1.37618393495
30
0.0
11
4.5039797757
21
-1.55084460647
31
0.0
0
LINE
5
593
100
AcDbEntity
100
AcDbLine
8
3
62
256
370
-1
6
ByLayer
10
4.5039797757
20
-1.55084460647
30
0.0
11
4.96625416452
21
-1.72943267685
31
0.0
0
LINE
5
594
100
AcDbEntity
100
AcDbLine
8
3
62
256
370
-1
6
ByLayer
10
4.96625416452
20
-1.72943267685
30
0.0
11
5.42921238068
21
-1.91192749073
31
0.0
0
LINE
5
595
100
AcDbEntity
100
AcDbLine
8
3
62
256
370
-1
6
ByLayer
10
5.42921238068
20
-1.91192749073
30
0.0
11
5.89272993935
21
-2.09830674596
31
0.0
0
LINE
5
596
100
AcDbEntity
100
AcDbLine
8
3
62
256
370
-1
6
ByLayer
10
5.89272993935
20
-2.09830674596
30
0.0
11
6.35668244009
21
-2.28854649863
31
0.0
0
LINE
5
597
100
AcDbEntity
100
AcDbLine
8
3
62
256
370
-1
6
ByLayer
10
6.35668244009
20
-2.28854649863
30
0.0
11
6.82094560124
21
-2.4826211684
31
0.0
0
LINE
5
598
100
AcDbEntity
100
AcDbLine
8
3
62
256
370
-1
6
ByLayer
10
6.82094560124
20
-2.4826211684
30
0.0
11
7.28539529425
21
-2.68050354461
31
0.0
0
LINE
5
599
100
AcDbEntity
100
AcDbLine
8
3
62
256
370
-1
6
ByLayer
10
7.28539529425
20
-2.68050354461
30
0.0
11
7.74990757787
21
-2.88216479273
31
0.0
0
LINE
5
600
100
AcDbEntity
100
AcDbLine
8
3
62
256
370
-1
6
ByLayer
10
7.74990757787
20
-2.88216479273
30
0.0
11
8.21435873231
21
-3.08757446147
31
0.0
0
LINE
5
601
100
AcDbEntity
100
AcDbLine
8
3
62
256
370
-1
6
ByLayer
10
8.21435873231
20
-3.08757446147
30
0.0
11
8.67862529333
21
-3.29670049038
31
0.0
0
LINE
5
602
100
AcDbEntity
100
AcDbLine
8
3
62
256
370
-1
6
ByLayer
10
8.67862529333
20
-3.29670049038
30
0.0
11
9.14258408614
21
-3.50950921795
31
0.0
0
LINE
5
603
100
AcDbEntity
100
AcDbLine
8
3
62
256
370
-1
6
ByLayer
10
9.14258408614
20
-3.50950921795
30
0.0
11
9.60611225925
21
-3.72596539033
31
0.0
0
LINE
5
604
100
AcDbEntity
100
AcDbLine
8
3
62
256
370
-1
6
ByLayer
10
9.60611225925
20
-3.72596539033
30
0.0
11
10.0690873182
21
-3.94603217046
31
0.0
0
LINE
5
605
100
AcDbEntity
100
AcDbLine
8
3
62
256
370
-1
6
ByLayer
10
10.0690873182
20
-3.94603217046
30
0.0
11
10.5313871591
21
-4.1696711478
31
0.0
0
LINE
5
606
100
AcDbEntity
100
AcDbLine
8
3
62
256
370
-1
6
ByLayer
10
10.5313871591
20
-4.1696711478
30
0.0
11
10.9928901022
21
-4.39684234858
31
0.0
0
LINE
5
607
100
AcDbEntity
100
AcDbLine
8
3
62
256
370
-1
6
ByLayer
10
10.9928901022
20
-4.39684234858
30
0.0
11
11.4534749248
21
-4.62750424655
31
0.0
0
LINE
5
608
100
AcDbEntity
100
AcDbLine
8
3
62
256
370
-1
6
ByLayer
10
11.4534749248
20
-4.62750424655
30
0.0
11
11.9130208947
21
-4.86161377422
31
0.0
0
LINE
5
609
100
AcDbEntity
100
AcDbLine
8
3
62
256
370
-1
6
ByLayer
10
11.9130208947
20
-4.86161377422
30
0.0
11
12.3714078033
21
-5.09912633465
31
0.0
0
LINE
5
610
100
AcDbEntity
100
AcDbLine
8
3
62
256
370
-1
6
ByLayer
10
12.3714078033
20
-5.09912633465
30
0.0
11
12.8285159978
21
-5.33999581377
31
0.0
0
LINE
5
611
100
AcDbEntity
100
AcDbLine
8
3
62
256
370
-1
6
ByLayer
10
12.8285159978
20
-5.33999581377
30
0.0
11
13.2842264141
21
-5.5841745931
31
0.0
0
LINE
5
612
100
AcDbEntity
100
AcDbLine
8
3
62
256
370
-1
6
ByLayer
10
13.2842264141
20
-5.5841745931
30
0.0
11
13.7384206093
21
-5.83161356313
31
0.0
0
LINE
5
613
100
AcDbEntity
100
AcDbLine
8
3
62
256
370
-1
6
ByLayer
10
13.7384206093
20
-5.83161356313
30
0.0
11
14.1909807935
21
-6.08226213702
31
0.0
0
LINE
5
614
100
AcDbEntity
100
AcDbLine
8
3
62
256
370
-1
6
ByLayer
10
14.1909807935
20
-6.08226213702
30
0.0
11
14.641789862
21
-6.33606826497
31
0.0
0
LINE
5
615
100
AcDbEntity
100
AcDbLine
8
3
62
256
370
-1
6
ByLayer
10
14.641789862
20
-6.33606826497
30
0.0
11
15.0907314271
21
-6.59297844893
31
0.0
0
LINE
5
616
100
AcDbEntity
100
AcDbLine
8
3
62
256
370
-1
6
ByLayer
10
15.0907314271
20
-6.59297844893
30
0.0
11
15.5376898489
21
-6.85293775786
31
0.0
0
LINE
5
617
100
AcDbEntity
100
AcDbLine
8
3
62
256
370
-1
6
ByLayer
10
15.5376898489
20
-6.85293775786
30
0.0
11
15.9825502676
21
-7.11588984351
31
0.0
0
LINE
5
618
100
AcDbEntity
100
AcDbLine
8
3
62
256
370
-1
6
ByLayer
10
15.9825502676
20
-7.11588984351
30
0.0
11
16.4251986333
21
-7.38177695659
31
0.0
0
LINE
5
619
100
AcDbEntity
100
AcDbLine
8
3
62
256
370
-1
6
ByLayer
10
16.4251986333
20
-7.38177695659
30
0.0
11
16.8655217375
21
-7.65053996348
31
0.0
0
LINE
5
620
100
AcDbEntity
100
AcDbLine
8
3
62
256
370
-1
6
ByLayer
10
16.8655217375
20
-7.65053996348
30
0.0
11
17.3034072434
21
-7.92211836334
31
0.0
0
LINE
5
621
100
AcDbEntity
100
AcDbLine
8
3
62
256
370
-1
6
ByLayer
10
17.3034072434
20
-7.92211836334
30
0.0
11
17.7387437156
21
-8.19645030578
31
0.0
0
LINE
5
622
100
AcDbEntity
100
AcDbLine
8
3
62
256
370
-1
6
ByLayer
10
17.7387437156
20
-8.19645030578
30
0.0
11
18.1714206505
21
-8.47347260887
31
0.0
0
LINE
5
623
100
AcDbEntity
100
AcDbLine
8
3
62
256
370
-1
6
ByLayer
10
18.1714206505
20
-8.47347260887
30
0.0
11
18.6013285053
21
-8.75312077767
31
0.0
0
LINE
5
624
100
AcDbEntity
100
AcDbLine
8
3
62
256
370
-1
6
ByLayer
10
18.6013285053
20
-8.75312077767
30
0.0
11
19.0283587276
21
-9.0353290232
31
0.0
0
LINE
5
625
100
AcDbEntity
100
AcDbLine
8
3
62
256
370
-1
6
ByLayer
10
19.0283587276
20
-9.0353290232
30
0.0
11
19.4524037845
21
-9.32003028182
31
0.0
0
LINE
5
626
100
AcDbEntity
100
AcDbLine
8
3
62
256
370
-1
6
ByLayer
10
19.4524037845
20
-9.32003028182
30
0.0
11
19.8733571905
21
-9.60715623508
31
0.0
0
LINE
5
627
100
AcDbEntity
100
AcDbLine
8
3
62
256
370
-1
6
ByLayer
10
19.8733571905
20
-9.60715623508
30
0.0
11
20.2911135364
21
-9.89663732998
31
0.0
0
LINE
5
628
100
AcDbEntity
100
AcDbLine
8
3
62
256
370
-1
6
ByLayer
10
20.2911135364
20
-9.89663732998
30
0.0
11
20.7055685168
21
-10.1884027996
31
0.0
0
LINE
5
629
100
AcDbEntity
100
AcDbLine
8
3
62
256
370
-1
6
ByLayer
10
20.7055685168
20
-10.1884027996
30
0.0
11
21.1166189581
21
-10.4823806843
31
0.0
0
LINE
5
630
100
AcDbEntity
100
AcDbLine
8
3
62
256
370
-1
6
ByLayer
10
21.1166189581
20
-10.4823806843
30
0.0
11
21.5241628451
21
-10.778497853
31
0.0
0
LINE
5
631
100
AcDbEntity
100
AcDbLine
8
3
62
256
370
-1
6
ByLayer
10
21.5241628451
20
-10.778497853
30
0.0
11
21.9280993483
21
-11.0766800254
31
0.0
0
LINE
5
632
100
AcDbEntity
100
AcDbLine
8
3
62
256
370
-1
6
ByLayer
10
21.9280993483
20
-11.0766800254
30
0.0
11
22.3283288505
21
-11.376851794
31
0.0
0
LINE
5
633
100
AcDbEntity
100
AcDbLine
8
3
62
256
370
-1
6
ByLayer
10
22.3283288505
20
-11.376851794
30
0.0
11
22.7247529721
21
-11.678936647
31
0.0
0
LINE
5
634
100
AcDbEntity
100
AcDbLine
8
3
62
256
370
-1
6
ByLayer
10
22.7247529721
20
-11.678936647
30
0.0
11
23.1172745977
21
-11.9828569912
31
0.0
0
LINE
5
635
100
AcDbEntity
100
AcDbLine
8
3
62
256
370
-1
6
ByLayer
10
23.1172745977
20
-11.9828569912
30
0.0
11
23.5057979008
21
-12.2885341755
31
0.0
0
LINE
5
636
100
AcDbEntity
100
AcDbLine
8
3
62
256
370
-1
6
ByLayer
10
23.5057979008
20
-12.2885341755
30
0.0
11
23.8902283691
21
-12.5958885147
31
0.0
0
LINE
5
637
100
AcDbEntity
100
AcDbLine
8
3
62
256
370
-1
6
ByLayer
10
23.8902283691
20
-12.5958885147
30
0.0
11
24.2704728284
21
-12.9048393138
31
0.0
0
LINE
5
638
100
AcDbEntity
100
AcDbLine
8
3
62
256
370
-1
6
ByLayer
10
24.2704728284
20
-12.9048393138
30
0.0
11
24.6464394675
21
-13.2153048923
31
0.0
0
LINE
5
639
100
AcDbEntity
100
AcDbLine
8
3
62
256
370
-1
6
ByLayer
10
24.6464394675
20
-13.2153048923
30
0.0
11
25.0180378609
21
-13.5272026092
31
0.0
0
LINE
5
640
100
AcDbEntity
100
AcDbLine
8
3
62
256
370
-1
6
ByLayer
10
25.0180378609
20
-13.5272026092
30
0.0
11
25.385178993
21
-13.8404488884
31
0.0
0
LINE
5
641
100
AcDbEntity
100
AcDbLine
8
3
62
256
370
-1
6
ByLayer
10
25.385178993
20
-13.8404488884
30
0.0
11
25.74777528
21
-14.1549592438
31
0.0
0
LINE
5
642
100
AcDbEntity
100
AcDbLine
8
3
62
256
370
-1
6
ByLayer
10
25.74777528
20
-14.1549592438
30
0.0
11
26.1057405926
21
-14.4706483054
31
0.0
0
LINE
5
643
100
AcDbEntity
100
AcDbLine
8
3
62
256
370
-1
6
ByLayer
10
26.1057405926
20
-14.4706483054
30
0.0
11
26.4589902781
21
-14.7874298455
31
0.0
0
LINE
5
644
100
AcDbEntity
100
AcDbLine
8
3
62
256
370
-1
6
ByLayer
10
26.4589902781
20
-14.7874298455
30
0.0
11
26.8074411815
21
-15.1052168054
31
0.0
0
LINE
5
645
100
AcDbEntity
100
AcDbLine
8
3
62
256
370
-1
6
ByLayer
10
26.8074411815
20
-15.1052168054
30
0.0
11
27.1510116664
21
-15.4239213215
31
0.0
0
LINE
5
646
100
AcDbEntity
100
AcDbLine
8
3
62
256
370
-1
6
ByLayer
10
27.1510116664
20
-15.4239213215
30
0.0
11
27.4896216359
21
-15.7434547532
31
0.0
0
LINE
5
647
100
AcDbEntity
100
AcDbLine
8
3
62
256
370
-1
6
ByLayer
10
27.4896216359
20
-15.7434547532
30
0.0
11
27.8231925523
21
-16.0637277098
31
0.0
0
LINE
5
648
100
AcDbEntity
100
AcDbLine
8
3
62
256
370
-1
6
ByLayer
10
27.8231925523
20
-16.0637277098
30
0.0
11
28.1516474565
21
-16.3846500779
31
0.0
0
LINE
5
649
100
AcDbEntity
100
AcDbLine
8
3
62
256
370
-1
6
ByLayer
10
28.1516474565
20
-16.3846500779
30
0.0
11
28.4749109876
21
-16.7061310499
31
0.0
0
LINE
5
650
100
AcDbEntity
100
AcDbLine
8
3
62
256
370
-1
6
ByLayer
10
28.4749109876
20
-16.7061310499
30
0.0
11
28.792909401
21
-17.0280791517
31
0.0
0
LINE
5
651
100
AcDbEntity
100
AcDbLine
8
3
62
256
370
-1
6
ByLayer
10
28.792909401
20
-17.0280791517
30
0.0
11
29.1055705865
21
-17.3504022715
31
0.0
0
LINE
5
652
100
AcDbEntity
100
AcDbLine
8
3
62
256
370
-1
6
ByLayer
10
29.1055705865
20
-17.3504022715
30
0.0
11
29.4128240861
21
-17.6730076877
31
0.0
0
LINE
5
653
100
AcDbEntity
100
AcDbLine
8
3
62
256
370
-1
6
ByLayer
10
29.4128240861
20
-17.6730076877
30
0.0
11
29.7146011109
21
-17.9958020988
31
0.0
0
LINE
5
654
100
AcDbEntity
100
AcDbLine
8
3
62
256
370
-1
6
ByLayer
10
29.7146011109
20
-17.9958020988
30
0.0
11
30.0108345577
21
-18.3186916515
31
0.0
0
LINE
5
655
100
AcDbEntity
100
AcDbLine
8
3
62
256
370
-1
6
ByLayer
10
30.0108345577
20
-18.3186916515
30
0.0
11
30.3014590251
21
-18.6415819707
31
0.0
0
LINE
5
656
100
AcDbEntity
100
AcDbLine
8
3
62
256
370
-1
6
ByLayer
10
30.3014590251
20
-18.6415819707
30
0.0
11
30.5864108289
21
-18.9643781888
31
0.0
0
LINE
5
657
100
AcDbEntity
100
AcDbLine
8
3
62
256
370
-1
6
ByLayer
10
30.5864108289
20
-18.9643781888
30
0.0
11
30.8656280171
21
-19.2869849753
31
0.0
0
LINE
5
658
100
AcDbEntity
100
AcDbLine
8
3
62
256
370
-1
6
ByLayer
10
30.8656280171
20
-19.2869849753
30
0.0
11
31.1390503845
21
-19.6093065668
31
0.0
0
LINE
5
659
100
AcDbEntity
100
AcDbLine
8
3
62
256
370
-1
6
ByLayer
10
31.1390503845
20
-19.6093065668
30
0.0
11
31.4066194867
21
-19.9312467969
31
0.0
0
LINE
5
660
100
AcDbEntity
100
AcDbLine
8
3
62
256
370
-1
6
ByLayer
10
31.4066194867
20
-19.9312467969
30
0.0
11
31.6682786532
21
-20.2527091268
31
0.0
0
LINE
5
661
100
AcDbEntity
100
AcDbLine
8
3
62
256
370
-1
6
ByLayer
10
31.6682786532
20
-20.2527091268
30
0.0
11
31.9239730005
21
-20.5735966755
31
0.0
0
LINE
5
662
100
AcDbEntity
100
AcDbLine
8
3
62
256
370
-1
6
ByLayer
10
31.9239730005
20
-20.5735966755
30
0.0
11
32.1736494444
21
-20.8938122501
31
0.0
0
LINE
5
663
100
AcDbEntity
100
AcDbLine
8
3
62
256
370
-1
6
ByLayer
10
32.1736494444
20
-20.8938122501
30
0.0
11
32.4172567118
21
-21.2132583768
31
0.0
0
LINE
5
664
100
AcDbEntity
100
AcDbLine
8
3
62
256
370
-1
6
ByLayer
10
32.4172567118
20
-21.2132583768
30
0.0
11
32.6547453519
21
-21.5318373318
31
0.0
0
LINE
5
665
100
AcDbEntity
100
AcDbLine
8
3
62
256
370
-1
6
ByLayer
10
32.6547453519
20
-21.5318373318
30
0.0
11
32.8860677469
21
-21.8494511719
31
0.0
0
LINE
5
666
100
AcDbEntity
100
AcDbLine
8
3
62
256
370
-1
6
ByLayer
10
32.8860677469
20
-21.8494511719
30
0.0
11
33.111178122
21
-22.1660017658
31
0.0
0
LINE
5
667
100
AcDbEntity
100
AcDbLine
8
3
62
256
370
-1
6
ByLayer
10
33.111178122
20
-22.1660017658
30
0.0
11
33.3300325552
21
-22.4813908251
31
0.0
0
LINE
5
668
100
AcDbEntity
100
AcDbLine
8
3
62
256
370
-1
6
ByLayer
10
33.3300325552
20
-22.4813908251
30
0.0
11
33.5425889863
21
-22.7955199357
31
0.0
0
LINE
5
669
100
AcDbEntity
100
AcDbLine
8
3
62
256
370
-1
6
ByLayer
10
33.5425889863
20
-22.7955199357
30
0.0
11
33.748807225
21
-23.108290589
31
0.0
0
LINE
5
670
100
AcDbEntity
100
AcDbLine
8
3
62
256
370
-1
6
ByLayer
10
33.748807225
20
-23.108290589
30
0.0
11
33.9486489595
21
-23.4196042133
31
0.0
0
LINE
5
671
100
AcDbEntity
100
AcDbLine
8
3
62
256
370
-1
6
ByLayer
10
33.9486489595
20
-23.4196042133
30
0.0
11
34.1420777629
21
-23.7293622054
31
0.0
0
LINE
5
672
100
AcDbEntity
100
AcDbLine
8
3
62
256
370
-1
6
ByLayer
10
34.1420777629
20
-23.7293622054
30
0.0
11
34.3290591008
21
-24.037465962
31
0.0
0
LINE
5
673
100
AcDbEntity
100
AcDbLine
8
3
62
256
370
-1
6
ByLayer
10
34.3290591008
20
-24.037465962
30
0.0
11
34.509560337
21
-24.3438169113
31
0.0
0
LINE
5
674
100
AcDbEntity
100
AcDbLine
8
3
62
256
370
-1
6
ByLayer
10
34.509560337
20
-24.3438169113
30
0.0
11
34.6835507394
21
-24.6483165445
31
0.0
0
LINE
5
675
100
AcDbEntity
100
AcDbLine
8
3
62
256
370
-1
6
ByLayer
10
34.6835507394
20
-24.6483165445
30
0.0
11
34.8510014848
21
-24.9508664475
31
0.0
0
LINE
5
676
100
AcDbEntity
100
AcDbLine
8
3
62
256
370
-1
6
ByLayer
10
34.8510014848
20
-24.9508664475
30
0.0
11
35.0118856635
21
-25.2513683327
31
0.0
0
LINE
5
677
100
AcDbEntity
100
AcDbLine
8
3
62
256
370
-1
6
ByLayer
10
35.0118856635
20
-25.2513683327
30
0.0
11
35.1661782835
21
-25.5497240704
31
0.0
0
LINE
5
678
100
AcDbEntity
100
AcDbLine
8
3
62
256
370
-1
6
ByLayer
10
35.1661782835
20
-25.5497240704
30
0.0
11
35.3138562732
21
-25.8458357203
31
0.0
0
LINE
5
679
100
AcDbEntity
100
AcDbLine
8
3
62
256
370
-1
6
ByLayer
10
35.3138562732
20
-25.8458357203
30
0.0
11
35.4548984848
21
-26.1396055636
31
0.0
0
LINE
5
680
100
AcDbEntity
100
AcDbLine
8
3
62
256
370
-1
6
ByLayer
10
35.4548984848
20
-26.1396055636
30
0.0
11
35.5892856961
21
-26.4309361343
31
0.0
0
LINE
5
681
100
AcDbEntity
100
AcDbLine
8
3
62
256
370
-1
6
ByLayer
10
35.5892856961
20
-26.4309361343
30
0.0
11
35.7170006122
21
-26.7197302506
31
0.0
0
LINE
5
682
100
AcDbEntity
100
AcDbLine
8
3
62
256
370
-1
6
ByLayer
10
35.7170006122
20
-26.7197302506
30
0.0
11
35.8380278668
21
-27.0058910467
31
0.0
0
LINE
5
683
100
AcDbEntity
100
AcDbLine
8
3
62
256
370
-1
6
ByLayer
10
35.8380278668
20
-27.0058910467
30
0.0
11
35.9523540221
21
-27.2893220043
31
0.0
0
LINE
5
684
100
AcDbEntity
100
AcDbLine
8
3
62
256
370
-1
6
ByLayer
10
35.9523540221
20
-27.2893220043
30
0.0
11
36.0599675694
21
-27.5699269836
31
0.0
0
LINE
5
685
100
AcDbEntity
100
AcDbLine
8
3
62
256
370
-1
6
ByLayer
10
36.0599675694
20
-27.5699269836
30
0.0
11
36.1608589279
21
-27.8476102552
31
0.0
0
LINE
5
686
100
AcDbEntity
100
AcDbLine
8
3
62
256
370
-1
6
ByLayer
10
36.1608589279
20
-27.8476102552
30
0.0
11
36.2550204435
21
-28.1222765307
31
0.0
0
LINE
5
687
100
AcDbEntity
100
AcDbLine
8
3
62
256
370
-1
6
ByLayer
10
36.2550204435
20
-28.1222765307
30
0.0
11
36.3424463873
21
-28.3938309945
31
0.0
0
LINE
5
688
100
AcDbEntity
100
AcDbLine
8
3
62
256
370
-1
6
ByLayer
10
36.3424463873
20
-28.3938309945
30
0.0
11
36.4231329529
21
-28.6621793343
31
0.0
0
LINE
5
689
100
AcDbEntity
100
AcDbLine
8
3
62
256
370
-1
6
ByLayer
10
36.4231329529
20
-28.6621793343
30
0.0
11
36.4970782535
21
-28.9272277724
31
0.0
0
LINE
5
690
100
AcDbEntity
100
AcDbLine
8
3
62
256
370
-1
6
ByLayer
10
36.4970782535
20
-28.9272277724
30
0.0
11
36.5642823185
21
-29.1888830963
31
0.0
0
LINE
5
691
100
AcDbEntity
100
AcDbLine
8
3
62
256
370
-1
6
ByLayer
10
36.5642823185
20
-29.1888830963
30
0.0
11
36.6247470891
21
-29.4470526896
31
0.0
0
LINE
5
692
100
AcDbEntity
100
AcDbLine
8
3
62
256
370
-1
6
ByLayer
10
36.6247470891
20
-29.4470526896
30
0.0
11
36.6784764142
21
-29.7016445622
31
0.0
0
LINE
5
693
100
AcDbEntity
100
AcDbLine
8
3
62
256
370
-1
6
ByLayer
10
36.6784764142
20
-29.7016445622
30
0.0
11
36.7254760445
21
-29.952567381
31
0.0
0
LINE
5
694
100
AcDbEntity
100
AcDbLine
8
3
62
256
370
-1
6
ByLayer
10
36.7254760445
20
-29.952567381
30
0.0
11
36.7657536272
21
-30.1997305002
31
0.0
0
LINE
5
695
100
AcDbEntity
100
AcDbLine
8
3
62
256
370
-1
6
ByLayer
10
36.7657536272
20
-30.1997305002
30
0.0
11
36.7993186994
21
-30.4430439909
31
0.0
0
LINE
5
696
100
AcDbEntity
100
AcDbLine
8
3
62
256
370
-1
6
ByLayer
10
36.7993186994
20
-30.4430439909
30
0.0
11
36.8261826813
21
-30.6824186715
31
0.0
0
LINE
5
697
100
AcDbEntity
100
AcDbLine
8
3
62
256
370
-1
6
ByLayer
10
36.8261826813
20
-30.6824186715
30
0.0
11
36.8463588688
21
-30.9177661371
31
0.0
0
LINE
5
698
100
AcDbEntity
100
AcDbLine
8
3
62
256
370
-1
6
ByLayer
10
36.8463588688
20
-30.9177661371
30
0.0
11
36.8598624255
21
-31.148998789
31
0.0
0
LINE
5
699
100
AcDbEntity
100
AcDbLine
8
3
62
256
370
-1
6
ByLayer
10
36.8598624255
20
-31.148998789
30
0.0
11
36.8667103737
21
-31.3760298641
31
0.0
0
LINE
5
700
100
AcDbEntity
100
AcDbLine
8
3
62
256
370
-1
6
ByLayer
10
36.8667103737
20
-31.3760298641
30
0.0
11
36.8669215862
21
-31.5987734641
31
0.0
0
LINE
5
701
100
AcDbEntity
100
AcDbLine
8
3
62
256
370
-1
6
ByLayer
10
36.8669215862
20
-31.5987734641
30
0.0
11
36.8605167758
21
-31.817144584
31
0.0
0
LINE
5
702
100
AcDbEntity
100
AcDbLine
8
3
62
256
370
-1
6
ByLayer
10
36.8605167758
20
-31.817144584
30
0.0
11
36.8475184856
21
-32.0310591409
31
0.0
0
LINE
5
703
100
AcDbEntity
100
AcDbLine
8
3
62
256
370
-1
6
ByLayer
10
36.8475184856
20
-32.0310591409
30
0.0
11
36.827951078
21
-32.2404340026
31
0.0
0
LINE
5
704
100
AcDbEntity
100
AcDbLine
8
3
62
256
370
-1
6
ByLayer
10
36.827951078
20
-32.2404340026
30
0.0
11
36.8018407237
21
-32.4451870152
31
0.0
0
LINE
5
705
100
AcDbEntity
100
AcDbLine
8
3
62
256
370
-1
6
ByLayer
10
36.8018407237
20
-32.4451870152
30
0.0
11
36.76921539
21
-32.6452370316
31
0.0
0
LINE
5
706
100
AcDbEntity
100
AcDbLine
8
3
62
256
370
-1
6
ByLayer
10
36.76921539
20
-32.6452370316
30
0.0
11
36.7301048281
21
-32.8405039384
31
0.0
0
LINE
5
707
100
AcDbEntity
100
AcDbLine
8
3
62
256
370
-1
6
ByLayer
10
36.7301048281
20
-32.8405039384
30
0.0
11
36.6845405606
21
-33.0309086839
31
0.0
0
LINE
5
708
100
AcDbEntity
100
AcDbLine
8
3
62
256
370
-1
6
ByLayer
10
36.6845405606
20
-33.0309086839
30
0.0
11
36.632555868
21
-33.2163733047
31
0.0
0
LINE
5
709
100
AcDbEntity
100
AcDbLine
8
3
62
256
370
-1
6
ByLayer
10
36.632555868
20
-33.2163733047
30
0.0
11
36.5741857753
21
-33.3968209524
31
0.0
0
LINE
5
710
100
AcDbEntity
100
AcDbLine
8
3
62
256
370
-1
6
ByLayer
10
36.5741857753
20
-33.3968209524
30
0.0
11
36.5094670369
21
-33.5721759203
31
0.0
0
LINE
5
711
100
AcDbEntity
100
AcDbLine
8
3
62
256
370
-1
6
ByLayer
10
36.5094670369
20
-33.5721759203
30
0.0
11
36.4384381224
21
-33.7423636693
31
0.0
0
LINE
5
712
100
AcDbEntity
100
AcDbLine
8
3
62
256
370
-1
6
ByLayer
10
36.4384381224
20
-33.7423636693
30
0.0
11
36.3611392009
21
-33.907310854
31
0.0
0
LINE
5
713
100
AcDbEntity
100
AcDbLine
8
3
62
256
370
-1
6
ByLayer
10
36.3611392009
20
-33.907310854
30
0.0
11
36.2776121255
21
-34.0669453477
31
0.0
0
LINE
5
714
100
AcDbEntity
100
AcDbLine
8
3
62
256
370
-1
6
ByLayer
10
36.2776121255
20
-34.0669453477
30
0.0
11
36.1879004167
21
-34.2211962678
31
0.0
0
LINE
5
715
100
AcDbEntity
100
AcDbLine
8
3
62
256
370
-1
6
ByLayer
10
36.1879004167
20
-34.2211962678
30
0.0
11
36.0920492454
21
-34.3699940008
31
0.0
0
LINE
5
716
100
AcDbEntity
100
AcDbLine
8
3
62
256
370
-1
6
ByLayer
10
36.0920492454
20
-34.3699940008
30
0.0
11
35.9901054164
21
-34.5132702262
31
0.0
0
LINE
5
717
100
AcDbEntity
100
AcDbLine
8
3
62
256
370
-1
6
ByLayer
10
35.9901054164
20
-34.5132702262
30
0.0
11
35.8821173498
21
-34.650957941
31
0.0
0
LINE
5
718
100
AcDbEntity
100
AcDbLine
8
3
62
256
370
-1
6
ByLayer
10
35.8821173498
20
-34.650957941
30
0.0
11
35.7681350634
21
-34.7829914835
31
0.0
0
LINE
5
719
100
AcDbEntity
100
AcDbLine
8
3
62
256
370
-1
6
ByLayer
10
35.7681350634
20
-34.7829914835
30
0.0
11
35.6482101535
21
-34.9093065562
31
0.0
0
LINE
5
720
100
AcDbEntity
100
AcDbLine
8
3
62
256
370
-1
6
ByLayer
10
35.6482101535
20
-34.9093065562
30
0.0
11
35.5223957764
21
-35.0298402489
31
0.0
0
LINE
5
721
100
AcDbEntity
100
AcDbLine
8
3
62
256
370
-1
6
ByLayer
10
35.5223957764
20
-35.0298402489
30
0.0
11
35.3907466284
21
-35.1445310615
31
0.0
0
LINE
5
722
100
AcDbEntity
100
AcDbLine
8
3
62
256
370
-1
6
ByLayer
10
35.3907466284
20
-35.1445310615
30
0.0
11
35.2533189259
21
-35.2533189259
31
0.0
0
LINE
5
723
100
AcDbEntity
100
AcDbLine
8
3
62
256
370
-1
6
ByLayer
10
35.2533189259
20
-35.2533189259
30
0.0
11
35.1101703851
21
-35.356145228
31
0.0
0
LINE
5
724
100
AcDbEntity
100
AcDbLine
8
3
62
256
370
-1
6
ByLayer
10
35.1101703851
20
-35.356145228
30
0.0
11
34.9613602011
21
-35.4529528288
31
0.0
0
LINE
5
725
100
AcDbEntity
100
AcDbLine
8
3
62
256
370
-1
6
ByLayer
10
34.9613602011
20
-35.4529528288
30
0.0
11
34.8069490262
21
-35.5436860853
31
0.0
0
LINE
5
726
100
AcDbEntity
100
AcDbLine
8
3
62
256
370
-1
6
ByLayer
10
34.8069490262
20
-35.5436860853
30
0.0
11
34.6469989492
21
-35.6282908714
31
0.0
0
LINE
5
727
100
AcDbEntity
100
AcDbLine
8
3
62
256
370
-1
6
ByLayer
10
34.6469989492
20
-35.6282908714
30
0.0
11
34.4815734721
21
-35.7067145976
31
0.0
0
LINE
5
728
100
AcDbEntity
100
AcDbLine
8
3
62
256
370
-1
6
ByLayer
10
34.4815734721
20
-35.7067145976
30
0.0
11
34.3107374887
21
-35.7789062306
31
0.0
0
LINE
5
729
100
AcDbEntity
100
AcDbLine
8
3
62
256
370
-1
6
ByLayer
10
34.3107374887
20
-35.7789062306
30
0.0
11
34.1345572609
21
-35.8448163129
31
0.0
0
LINE
5
730
100
AcDbEntity
100
AcDbLine
8
3
62
256
370
-1
6
ByLayer
10
34.1345572609
20
-35.8448163129
30
0.0
11
33.9531003959
21
-35.904396981
31
0.0
0
LINE
5
731
100
AcDbEntity
100
AcDbLine
8
3
62
256
370
-1
6
ByLayer
10
33.9531003959
20
-35.904396981
30
0.0
11
33.7664358225
21
-35.9576019842
31
0.0
0
LINE
5
732
100
AcDbEntity
100
AcDbLine
8
3
62
256
370
-1
6
ByLayer
10
33.7664358225
20
-35.9576019842
30
0.0
11
33.5746337668
21
-36.0043867021
31
0.0
0
LINE
5
733
100
AcDbEntity
100
AcDbLine
8
3
62
256
370
-1
6
ByLayer
10
33.5746337668
20
-36.0043867021
30
0.0
11
33.3777657284
21
-36.044708162
31
0.0
0
LINE
5
734
100
AcDbEntity
100
AcDbLine
8
3
62
256
370
-1
6
ByLayer
10
33.3777657284
20
-36.044708162
30
0.0
11
33.175904455
21
-36.0785250558
31
0.0
0
LINE
5
735
100
AcDbEntity
100
AcDbLine
8
3
62
256
370
-1
6
ByLayer
10
33.175904455
20
-36.0785250558
30
0.0
11
32.9691239177
21
-36.1057977565
31
0.0
0
LINE
5
736
100
AcDbEntity
100
AcDbLine
8
3
62
256
370
-1
6
ByLayer
10
32.9691239177
20
-36.1057977565
30
0.0
11
32.7574992859
21
-36.126488334
31
0.0
0
LINE
5
737
100
AcDbEntity
100
AcDbLine
8
3
62
256
370
-1
6
ByLayer
10
32.7574992859
20
-36.126488334
30
0.0
11
32.5411069008
21
-36.1405605705
31
0.0
0
LINE
5
738
100
AcDbEntity
100
AcDbLine
8
3
62
256
370
-1
6
ByLayer
10
32.5411069008
20
-36.1405605705
30
0.0
11
32.3200242501
21
-36.1479799755
31
0.0
0
LINE
5
739
100
AcDbEntity
100
AcDbLine
8
3
62
256
370
-1
6
ByLayer
10
32.3200242501
20
-36.1479799755
30
0.0
11
32.094329941
21
-36.1487138004
31
0.0
0
LINE
5
740
100
AcDbEntity
100
AcDbLine
8
3
62
256
370
-1
6
ByLayer
10
32.094329941
20
-36.1487138004
30
0.0
11
31.8641036742
21
-36.1427310519
31
0.0
0
LINE
5
741
100
AcDbEntity
100
AcDbLine
8
3
62
256
370
-1
6
ByLayer
10
31.8641036742
20
-36.1427310519
30
0.0
11
31.6294262162
21
-36.1300025062
31
0.0
0
LINE
5
742
100
AcDbEntity
100
AcDbLine
8
3
62
256
370
-1
6
ByLayer
10
31.6294262162
20
-36.1300025062
30
0.0
11
31.3903793726
21
-36.1105007209
31
0.0
0
LINE
5
743
100
AcDbEntity
100
AcDbLine
8
3
62
256
370
-1
6
ByLayer
10
31.3903793726
20
-36.1105007209
30
0.0
11
31.1470459605
21
-36.0842000485
31
0.0
0
LINE
5
744
100
AcDbEntity
100
AcDbLine
8
3
62
256
370
-1
6
ByLayer
10
31.1470459605
20
-36.0842000485
30
0.0
11
30.8995097802
21
-36.0510766474
31
0.0
0
LINE
5
745
100
AcDbEntity
100
AcDbLine
8
3
62
256
370
-1
6
ByLayer
10
30.8995097802
20
-36.0510766474
30
0.0
11
30.6478555879
21
-36.0111084936
31
0.0
0
LINE
5
746
100
AcDbEntity
100
AcDbLine
8
3
62
256
370
-1
6
ByLayer
10
30.6478555879
20
-36.0111084936
30
0.0
11
30.3921690668
21
-35.9642753914
31
0.0
0
LINE
5
747
100
AcDbEntity
100
AcDbLine
8
3
62
256
370
-1
6
ByLayer
10
30.3921690668
20
-35.9642753914
30
0.0
11
30.1325367986
21
-35.9105589837
31
0.0
0
LINE
5
748
100
AcDbEntity
100
AcDbLine
8
3
62
256
370
-1
6
ByLayer
10
30.1325367986
20
-35.9105589837
30
0.0
11
29.8690462351
21
-35.849942762
31
0.0
0
LINE
5
749
100
AcDbEntity
100
AcDbLine
8
3
62
256
370
-1
6
ByLayer
10
29.8690462351
20
-35.849942762
30
0.0
11
29.6017856688
21
-35.7824120749
31
0.0
0
LINE
5
750
100
AcDbEntity
100
AcDbLine
8
3
62
256
370
-1
6
ByLayer
10
29.6017856688
20
-35.7824120749
30
0.0
11
29.3308442036
21
-35.7079541375
31
0.0
0
LINE
5
751
100
AcDbEntity
100
AcDbLine
8
3
62
256
370
-1
6
ByLayer
10
29.3308442036
20
-35.7079541375
30
0.0
11
29.0563117256
21
-35.6265580392
31
0.0
0
LINE
5
752
100
AcDbEntity
100
AcDbLine
8
3
62
256
370
-1
6
ByLayer
10
29.0563117256
20
-35.6265580392
30
0.0
11
28.7782788736
21
-35.538214751
31
0.0
0
LINE
5
753
100
AcDbEntity
100
AcDbLine
8
3
62
256
370
-1
6
ByLayer
10
28.7782788736
20
-35.538214751
30
0.0
11
28.4968370087
21
-35.4429171329
31
0.0
0
LINE
5
754
100
AcDbEntity
100
AcDbLine
8
3
62
256
370
-1
6
ByLayer
10
28.4968370087
20
-35.4429171329
30
0.0
11
28.2120781848
21
-35.3406599402
31
0.0
0
LINE
5
755
100
AcDbEntity
100
AcDbLine
8
3
62
256
370
-1
6
ByLayer
10
28.2120781848
20
-35.3406599402
30
0.0
11
27.9240951182
21
-35.2314398291
31
0.0
0
LINE
5
756
100
AcDbEntity
100
AcDbLine
8
3
62
256
370
-1
6
ByLayer
10
27.9240951182
20
-35.2314398291
30
0.0
11
27.6329811573
21
-35.1152553627
31
0.0
0
LINE
5
757
100
AcDbEntity
100
AcDbLine
8
3
62
256
370
-1
6
ByLayer
10
27.6329811573
20
-35.1152553627
30
0.0
11
27.3388302519
21
-34.9921070149
31
0.0
0
LINE
5
758
100
AcDbEntity
100
AcDbLine
8
3
62
256
370
-1
6
ByLayer
10
27.3388302519
20
-34.9921070149
30
0.0
11
27.0417369232
21
-34.8619971753
31
0.0
0
LINE
5
759
100
AcDbEntity
100
AcDbLine
8
3
62
256
370
-1
6
ByLayer
10
27.0417369232
20
-34.8619971753
30
0.0
11
26.741796232
21
-34.7249301525
31
0.0
0
LINE
5
760
100
AcDbEntity
100
AcDbLine
8
3
62
256
370
-1
6
ByLayer
10
26.741796232
20
-34.7249301525
30
0.0
11
26.439103749
21
-34.5809121772
31
0.0
0
LINE
5
761
100
AcDbEntity
100
AcDbLine
8
3
62
256
370
-1
6
ByLayer
10
26.439103749
20
-34.5809121772
30
0.0
11
26.1337555226
21
-34.4299514047
31
0.0
0
LINE
5
762
100
AcDbEntity
100
AcDbLine
8
3
62
256
370
-1
6
ByLayer
10
26.1337555226
20
-34.4299514047
30
0.0
11
25.8258480487
21
-34.272057917
31
0.0
0
LINE
5
763
100
AcDbEntity
100
AcDbLine
8
3
62
256
370
-1
6
ByLayer
10
25.8258480487
20
-34.272057917
30
0.0
11
25.5154782392
21
-34.1072437238
31
0.0
0
LINE
5
764
100
AcDbEntity
100
AcDbLine
8
3
62
256
370
-1
6
ByLayer
10
25.5154782392
20
-34.1072437238
30
0.0
11
25.2027433905
21
-33.9355227636
31
0.0
0
LINE
5
765
100
AcDbEntity
100
AcDbLine
8
3
62
256
370
-1
6
ByLayer
10
25.2027433905
20
-33.9355227636
30
0.0
11
24.8877411523
21
-33.7569109037
31
0.0
0
LINE
5
766
100
AcDbEntity
100
AcDbLine
8
3
62
256
370
-1
6
ByLayer
10
24.8877411523
20
-33.7569109037
30
0.0
11
24.5705694964
21
-33.5714259402
31
0.0
0
LINE
5
767
100
AcDbEntity
100
AcDbLine
8
3
62
256
370
-1
6
ByLayer
10
24.5705694964
20
-33.5714259402
30
0.0
11
24.2513266848
21
-33.3790875964
31
0.0
0
LINE
5
768
100
AcDbEntity
100
AcDbLine
8
3
62
256
370
-1
6
ByLayer
10
24.2513266848
20
-33.3790875964
30
0.0
11
23.9301112384
21
-33.1799175219
31
0.0
0
LINE
5
769
100
AcDbEntity
100
AcDbLine
8
3
62
256
370
-1
6
ByLayer
10
23.9301112384
20
-33.1799175219
30
0.0
11
23.6070219056
21
-32.9739392904
31
0.0
0
LINE
5
770
100
AcDbEntity
100
AcDbLine
8
3
62
256
370
-1
6
ByLayer
10
23.6070219056
20
-32.9739392904
30
0.0
11
23.2821576302
21
-32.7611783966
31
0.0
0
LINE
5
771
100
AcDbEntity
100
AcDbLine
8
3
62
256
370
-1
6
ByLayer
10
23.2821576302
20
-32.7611783966
30
0.0
11
22.9556175204
21
-32.5416622538
31
0.0
0
LINE
5
772
100
AcDbEntity
100
AcDbLine
8
3
62
256
370
-1
6
ByLayer
10
22.9556175204
20
-32.5416622538
30
0.0
11
22.6275008169
21
-32.3154201892
31
0.0
0
LINE
5
773
100
AcDbEntity
100
AcDbLine
8
3
62
256
370
-1
6
ByLayer
10
22.6275008169
20
-32.3154201892
30
0.0
11
22.297906861
21
-32.08248344
31
0.0
0
LINE
5
774
100
AcDbEntity
100
AcDbLine
8
3
62
256
370
-1
6
ByLayer
10
22.297906861
20
-32.08248344
30
0.0
11
21.9669350636
21
-31.8428851486
31
0.0
0
LINE
5
775
100
AcDbEntity
100
AcDbLine
8
3
62
256
370
-1
6
ByLayer
10
21.9669350636
20
-31.8428851486
30
0.0
11
21.6346848733
21
-31.5966603567
31
0.0
0
LINE
5
776
100
AcDbEntity
100
AcDbLine
8
3
62
256
370
-1
6
ByLayer
10
21.6346848733
20
-31.5966603567
30
0.0
11
21.3012557449
21
-31.3438459995
31
0.0
0
LINE
5
777
100
AcDbEntity
100
AcDbLine
8
3
62
256
370
-1
6
ByLayer
10
21.3012557449
20
-31.3438459995
30
0.0
11
20.9667471078
21
-31.0844808987
31
0.0
0
LINE
5
778
100
AcDbEntity
100
AcDbLine
8
3
62
256
370
-1
6
ByLayer
10
20.9667471078
20
-31.0844808987
30
0.0
11
20.6312583348
21
-30.8186057558
31
0.0
0
LINE
5
779
100
AcDbEntity
100
AcDbLine
8
3
62
256
370
-1
6
ByLayer
10
20.6312583348
20
-30.8186057558
30
0.0
11
20.2948887105
21
-30.5462631439
31
0.0
0
LINE
5
780
100
AcDbEntity
100
AcDbLine
8
3
62
256
370
-1
6
ByLayer
10
20.2948887105
20
-30.5462631439
30
0.0
11
19.9577374001
21
-30.2674974995
31
0.0
0
LINE
5
781
100
AcDbEntity
100
AcDbLine
8
3
62
256
370
-1
6
ByLayer
10
19.9577374001
20
-30.2674974995
30
0.0
11
19.6199034183
21
-29.9823551137
31
0.0
0
LINE
5
782
100
AcDbEntity
100
AcDbLine
8
3
62
256
370
-1
6
ByLayer
10
19.6199034183
20
-29.9823551137
30
0.0
11
19.2814855979
21
-29.6908841225
31
0.0
0
LINE
5
783
100
AcDbEntity
100
AcDbLine
8
3
62
256
370
-1
6
ByLayer
10
19.2814855979
20
-29.6908841225
30
0.0
11
18.9425825588
21
-29.3931344969
31
0.0
0
LINE
5
784
100
AcDbEntity
100
AcDbLine
8
3
62
256
370
-1
6
ByLayer
10
18.9425825588
20
-29.3931344969
30
0.0
11
18.6032926774
21
-29.0891580324
31
0.0
0
LINE
5
785
100
AcDbEntity
100
AcDbLine
8
3
62
256
370
-1
6
ByLayer
10
18.6032926774
20
-29.0891580324
30
0.0
11
18.2637140555
21
-28.779008338
31
0.0
0
LINE
5
786
100
AcDbEntity
100
AcDbLine
8
3
62
256
370
-1
6
ByLayer
10
18.2637140555
20
-28.779008338
30
0.0
11
17.9239444895
21
-28.462740824
31
0.0
0
LINE
5
787
100
AcDbEntity
100
AcDbLine
8
3
62
256
370
-1
6
ByLayer
10
17.9239444895
20
-28.462740824
30
0.0
11
17.5840814403
21
-28.1404126904
31
0.0
0
LINE
5
788
100
AcDbEntity
100
AcDbLine
8
3
62
256
370
-1
6
ByLayer
10
17.5840814403
20
-28.1404126904
30
0.0
11
17.2442220026
21
-27.8120829137
31
0.0
0
LINE
5
789
100
AcDbEntity
100
AcDbLine
8
3
62
256
370
-1
6
ByLayer
10
17.2442220026
20
-27.8120829137
30
0.0
11
16.9044628747
21
-27.4778122341
31
0.0
0
LINE
5
790
100
AcDbEntity
100
AcDbLine
8
3
62
256
370
-1
6
ByLayer
10
16.9044628747
20
-27.4778122341
30
0.0
11
16.5649003285
21
-27.1376631411
31
0.0
0
LINE
5
791
100
AcDbEntity
100
AcDbLine
8
3
62
256
370
-1
6
ByLayer
10
16.5649003285
20
-27.1376631411
30
0.0
11
16.2256301797
21
-26.7916998596
31
0.0
0
LINE
5
792
100
AcDbEntity
100
AcDbLine
8
3
62
256
370
-1
6
ByLayer
10
16.2256301797
20
-26.7916998596
30
0.0
11
15.8867477578
21
-26.4399883346
31
0.0
0
LINE
5
793
100
AcDbEntity
100
AcDbLine
8
3
62
256
370
-1
6
ByLayer
10
15.8867477578
20
-26.4399883346
30
0.0
11
15.548347877
21
-26.0825962163
31
0.0
0
LINE
5
794
100
AcDbEntity
100
AcDbLine
8
3
62
256
370
-1
6
ByLayer
10
15.548347877
20
-26.0825962163
30
0.0
11
15.2105248065
21
-25.7195928439
31
0.0
0
LINE
5
795
100
AcDbEntity
100
AcDbLine
8
3
62
256
370
-1
6
ByLayer
10
15.2105248065
20
-25.7195928439
30
0.0
11
14.8733722418
21
-25.3510492289
31
0.0
0
LINE
5
796
100
AcDbEntity
100
AcDbLine
8
3
62
256
370
-1
6
ByLayer
10
14.8733722418
20
-25.3510492289
30
0.0
11
14.5369832753
21
-24.9770380388
31
0.0
0
LINE
5
797
100
AcDbEntity
100
AcDbLine
8
3
62
256
370
-1
6
ByLayer
10
14.5369832753
20
-24.9770380388
30
0.0
11
14.2014503683
21
-24.5976335791
31
0.0
0
LINE
5
798
100
AcDbEntity
100
AcDbLine
8
3
62
256
370
-1
6
ByLayer
10
14.2014503683
20
-24.5976335791
30
0.0
11
13.8668653222
21
-24.2129117756
31
0.0
0
LINE
5
799
100
AcDbEntity
100
AcDbLine
8
3
62
256
370
-1
6
ByLayer
10
13.8668653222
20
-24.2129117756
30
0.0
11
13.5333192503
21
-23.8229501559
31
0.0
0
LINE
5
800
100
AcDbEntity
100
AcDbLine
8
3
62
256
370
-1
6
ByLayer
10
13.5333192503
20
-23.8229501559
30
0.0
11
13.2009025502
21
-23.4278278304
31
0.0
0
LINE
5
801
100
AcDbEntity
100
AcDbLine
8
3
62
256
370
-1
6
ByLayer
10
13.2009025502
20
-23.4278278304
30
0.0
11
12.8697048758
21
-23.0276254729
31
0.0
0
LINE
5
802
100
AcDbEntity
100
AcDbLine
8
3
62
256
370
-1
6
ByLayer
10
12.8697048758
20
-23.0276254729
30
0.0
11
12.5398151102
21
-22.6224253011
31
0.0
0
LINE
5
803
100
AcDbEntity
100
AcDbLine
8
3
62
256
370
-1
6
ByLayer
10
12.5398151102
20
-22.6224253011
30
0.0
11
12.2113213387
21
-22.2123110554
31
0.0
0
LINE
5
804
100
AcDbEntity
100
AcDbLine
8
3
62
256
370
-1
6
ByLayer
10
12.2113213387
20
-22.2123110554
30
0.0
11
11.8843108216
21
-21.797367979
31
0.0
0
LINE
5
805
100
AcDbEntity
100
AcDbLine
8
3
62
256
370
-1
6
ByLayer
10
11.8843108216
20
-21.797367979
30
0.0
11
11.5588699682
21
-21.3776827957
31
0.0
0
LINE
5
806
100
AcDbEntity
100
AcDbLine
8
3
62
256
370
-1
6
ByLayer
10
11.5588699682
20
-21.3776827957
30
0.0
11
11.2350843102
21
-20.953343689
31
0.0
0
LINE
5
807
100
AcDbEntity
100
AcDbLine
8
3
62
256
370
-1
6
ByLayer
10
11.2350843102
20
-20.953343689
30
0.0
11
10.9130384761
21
-20.5244402794
31
0.0
0
LINE
5
808
100
AcDbEntity
100
AcDbLine
8
3
62
256
370
-1
6
ByLayer
10
10.9130384761
20
-20.5244402794
30
0.0
11
10.5928161655
21
-20.0910636015
31
0.0
0
LINE
5
809
100
AcDbEntity
100
AcDbLine
8
3
62
256
370
-1
6
ByLayer
10
10.5928161655
20
-20.0910636015
30
0.0
11
10.274500124
21
-19.6533060818
31
0.0
0
LINE
5
810
100
AcDbEntity
100
AcDbLine
8
3
62
256
370
-1
6
ByLayer
10
10.274500124
20
-19.6533060818
30
0.0
11
9.95817211811
21
-19.2112615143
31
0.0
0
LINE
5
811
100
AcDbEntity
100
AcDbLine
8
3
62
256
370
-1
6
ByLayer
10
9.95817211811
20
-19.2112615143
30
0.0
11
9.64391291093
21
-18.7650250369
31
0.0
0
LINE
5
812
100
AcDbEntity
100
AcDbLine
8
3
62
256
370
-1
6
ByLayer
10
9.64391291093
20
-18.7650250369
30
0.0
11
9.33180223783
21
-18.3146931073
31
0.0
0
LINE
5
813
100
AcDbEntity
100
AcDbLine
8
3
62
256
370
-1
6
ByLayer
10
9.33180223783
20
-18.3146931073
30
0.0
11
9.02191878266
21
-17.8603634777
31
0.0
0
LINE
5
814
100
AcDbEntity
100
AcDbLine
8
3
62
256
370
-1
6
ByLayer
10
9.02191878266
20
-17.8603634777
30
0.0
11
8.71434015427
21
-17.4021351701
31
0.0
0
LINE
5
815
100
AcDbEntity
100
AcDbLine
8
3
62
256
370
-1
6
ByLayer
10
8.71434015427
20
-17.4021351701
30
0.0
11
8.40914286343
21
-16.9401084505
31
0.0
0
LINE
5
816
100
AcDbEntity
100
AcDbLine
8
3
62
256
370
-1
6
ByLayer
10
8.40914286343
20
-16.9401084505
30
0.0
11
8.10640230009
21
-16.4743848031
31
0.0
0
LINE
5
817
100
AcDbEntity
100
AcDbLine
8
3
62
256
370
-1
6
ByLayer
10
8.10640230009
20
-16.4743848031
30
0.0
11
7.80619271111
21
-16.0050669037
31
0.0
0
LINE
5
818
100
AcDbEntity
100
AcDbLine
8
3
62
256
370
-1
6
ByLayer
10
7.80619271111
20
-16.0050669037
30
0.0
11
7.50858717826
21
-15.5322585933
31
0.0
0
LINE
5
819
100
AcDbEntity
100
AcDbLine
8
3
62
256
370
-1
6
ByLayer
10
7.50858717826
20
-15.5322585933
30
0.0
11
7.21365759674
21
-15.0560648508
31
0.0
0
LINE
5
820
100
AcDbEntity
100
AcDbLine
8
3
62
256
370
-1
6
ByLayer
10
7.21365759674
20
-15.0560648508
30
0.0
11
6.92147465404
21
-14.5765917659
31
0.0
0
LINE
5
821
100
AcDbEntity
100
AcDbLine
8
3
62
256
370
-1
6
ByLayer
10
6.92147465404
20
-14.5765917659
30
0.0
11
6.63210780923
21
-14.0939465107
31
0.0
0
LINE
5
822
100
AcDbEntity
100
AcDbLine
8
3
62
256
370
-1
6
ByLayer
10
6.63210780923
20
-14.0939465107
30
0.0
11
6.34562527267
21
-13.6082373122
31
0.0
0
LINE
5
823
100
AcDbEntity
100
AcDbLine
8
3
62
256
370
-1
6
ByLayer
10
6.34562527267
20
-13.6082373122
30
0.0
11
6.06209398613
21
-13.1195734237
31
0.0
0
LINE
5
824
100
AcDbEntity
100
AcDbLine
8
3
62
256
370
-1
6
ByLayer
10
6.06209398613
20
-13.1195734237
30
0.0
11
5.7815796034
21
-12.6280650957
31
0.0
0
LINE
5
825
100
AcDbEntity
100
AcDbLine
8
3
62
256
370
-1
6
ByLayer
10
5.7815796034
20
-12.6280650957
30
0.0
11
5.50414647122
21
-12.1338235471
31
0.0
0
LINE
5
826
100
AcDbEntity
100
AcDbLine
8
3
62
256
370
-1
6
ByLayer
10
5.50414647122
20
-12.1338235471
30
0.0
11
5.2298576108
21
-11.6369609359
31
0.0
0
LINE
5
827
100
AcDbEntity
100
AcDbLine
8
3
62
256
370
-1
6
ByLayer
10
5.2298576108
20
-11.6369609359
30
0.0
11
4.95877469968
21
-11.137590329
31
0.0
0
LINE
5
828
100
AcDbEntity
100
AcDbLine
8
3
62
256
370
-1
6
ByLayer
10
4.95877469968
20
-11.137590329
30
0.0
11
4.69095805408
21
-10.6358256727
31
0.0
0
LINE
5
829
100
AcDbEntity
100
AcDbLine
8
3
62
256
370
-1
6
ByLayer
10
4.69095805408
20
-10.6358256727
30
0.0
11
4.42646661169
21
-10.1317817623
31
0.0
0
LINE
5
830
100
AcDbEntity
100
AcDbLine
8
3
62
256
370
-1
6
ByLayer
10
4.42646661169
20
-10.1317817623
30
0.0
11
4.165357915
21
-9.62557421119
31
0.0
0
LINE
5
831
100
AcDbEntity
100
AcDbLine
8
3
62
256
370
-1
6
ByLayer
10
4.165357915
20
-9.62557421119
30
0.0
11
3.90768809498
21
-9.11731942054
31
0.0
0
LINE
5
832
100
AcDbEntity
100
AcDbLine
8
3
62
256
370
-1
6
ByLayer
10
3.90768809498
20
-9.11731942054
30
0.0
11
3.6535118553
21
-8.60713454788
31
0.0
0
LINE
5
833
100
AcDbEntity
100
AcDbLine
8
3
62
256
370
-1
6
ByLayer
10
3.6535118553
20
-8.60713454788
30
0.0
11
3.40288245709
21
-8.09513747588
31
0.0
0
LINE
5
834
100
AcDbEntity
100
AcDbLine
8
3
62
256
370
-1
6
ByLayer
10
3.40288245709
20
-8.09513747588
30
0.0
11
3.15585170402
21
-7.58144678076
31
0.0
0
LINE
5
835
100
AcDbEntity
100
AcDbLine
8
3
62
256
370
-1
6
ByLayer
10
3.15585170402
20
-7.58144678076
30
0.0
11
2.91246992803
21
-7.06618170053
31
0.0
0
LINE
5
836
100
AcDbEntity
100
AcDbLine
8
3
62
256
370
-1
6
ByLayer
10
2.91246992803
20
-7.06618170053
30
0.0
11
2.67278597549
21
-6.5494621029
31
0.0
0
LINE
5
837
100
AcDbEntity
100
AcDbLine
8
3
62
256
370
-1
6
ByLayer
10
2.67278597549
20
-6.5494621029
30
0.0
11
2.43684719379
21
-6.03140845313
31
0.0
0
LINE
5
838
100
AcDbEntity
100
AcDbLine
8
3
62
256
370
-1
6
ByLayer
10
2.43684719379
20
-6.03140845313
30
0.0
11
2.20469941855
21
-5.51214178155
31
0.0
0
LINE
5
839
100
AcDbEntity
100
AcDbLine
8
3
62
256
370
-1
6
ByLayer
10
2.20469941855
20
-5.51214178155
30
0.0
11
1.97638696126
21
-4.99178365093
31
0.0
0
LINE
5
840
100
AcDbEntity
100
AcDbLine
8
3
62
256
370
-1
6
ByLayer
10
1.97638696126
20
-4.99178365093
30
0.0
11
1.75195259742
21
-4.47045612372
31
0.0
0
LINE
5
841
100
AcDbEntity
100
AcDbLine
8
3
62
256
370
-1
6
ByLayer
10
1.75195259742
20
-4.47045612372
30
0.0
11
1.53143755524
21
-3.94828172904
31
0.0
0
LINE
5
842
100
AcDbEntity
100
AcDbLine
8
3
62
256
370
-1
6
ByLayer
10
1.53143755524
20
-3.94828172904
30
0.0
11
1.3148815048
21
-3.42538342951
31
0.0
0
LINE
5
843
100
AcDbEntity
100
AcDbLine
8
3
62
256
370
-1
6
ByLayer
10
1.3148815048
20
-3.42538342951
30
0.0
11
1.10232254776
21
-2.90188458803
31
0.0
0
LINE
5
844
100
AcDbEntity
100
AcDbLine
8
3
62
256
370
-1
6
ByLayer
10
1.10232254776
20
-2.90188458803
30
0.0
11
0.893797207597
21
-2.37790893427
31
0.0
0
LINE
5
845
100
AcDbEntity
100
AcDbLine
8
3
62
256
370
-1
6
ByLayer
10
0.893797207597
20
-2.37790893427
30
0.0
11
0.689340420326
21
-1.8535805311
31
0.0
0
LINE
5
846
100
AcDbEntity
100
AcDbLine
8
3
62
256
370
-1
6
ByLayer
10
0.689340420326
20
-1.8535805311
30
0.0
11
0.488985525776
21
-1.32902374094
31
0.0
0
LINE
5
847
100
AcDbEntity
100
AcDbLine
8
3
62
256
370
-1
6
ByLayer
10
0.488985525776
20
-1.32902374094
30
0.0
11
0.292764259386
21
-0.804363191888
31
0.0
0
LINE
5
848
100
AcDbEntity
100
AcDbLine
8
3
62
256
370
-1
6
ByLayer
10
0.292764259386
20
-0.804363191888
30
0.0
11
0.100706744531
21
-0.279723743845
31
0.0
0
LINE
5
849
100
AcDbEntity
100
AcDbLine
8
3
62
256
370
-1
6
ByLayer
10
0.100706744531
20
-0.279723743845
30
0.0
11
-0.0871585146253
21
0.244769545535
31
0.0
0
LINE
5
850
100
AcDbEntity
100
AcDbLine
8
3
62
256
370
-1
6
ByLayer
10
-0.0871585146253
20
0.244769545535
30
0.0
11
-0.270804639736
21
0.768991454925
31
0.0
0
LINE
5
851
100
AcDbEntity
100
AcDbLine
8
3
62
256
370
-1
6
ByLayer
10
-0.270804639736
20
0.768991454925
30
0.0
11
-0.450206384349
21
1.29281663351
31
0.0
0
LINE
5
852
100
AcDbEntity
100
AcDbLine
8
3
62
256
370
-1
6
ByLayer
10
-0.450206384349
20
1.29281663351
30
0.0
11
-0.625340139441
21
1.81611963521
31
0.0
0
LINE
5
853
100
AcDbEntity
100
AcDbLine
8
3
62
256
370
-1
6
ByLayer
10
-0.625340139441
20
1.81611963521
30
0.0
11
-0.796183938419
21
2.33877495301
31
0.0
0
LINE
5
854
100
AcDbEntity
100
AcDbLine
8
3
62
256
370
-1
6
ByLayer
10
-0.796183938419
20
2.33877495301
30
0.0
11
-0.962717461579
21
2.86065705327
31
0.0
0
LINE
5
855
100
AcDbEntity
100
AcDbLine
8
3
62
256
370
-1
6
ByLayer
10
-0.962717461579
20
2.86065705327
30
0.0
11
-1.12492204002
21
3.3816404101
31
0.0
0
LINE
5
856
100
AcDbEntity
100
AcDbLine
8
3
62
256
370
-1
6
ByLayer
10
-1.12492204002
20
3.3816404101
30
0.0
11
-1.28278065904
21
3.90159953978
31
0.0
0
LINE
5
857
100
AcDbEntity
100
AcDbLine
8
3
62
256
370
-1
6
ByLayer
10
-1.28278065904
20
3.90159953978
30
0.0
11
-1.43627796093
21
4.42040903517
31
0.0
0
LINE
5
858
100
AcDbEntity
100
AcDbLine
8
3
62
256
370
-1
6
ByLayer
10
-1.43627796093
20
4.42040903517
30
0.0
11
-1.58540024732
21
4.93794360012
31
0.0
0
LINE
5
859
100
AcDbEntity
100
AcDbLine
8
3
62
256
370
-1
6
ByLayer
10
-1.58540024732
20
4.93794360012
30
0.0
11
-1.73013548086
21
5.4540780839
31
0.0
0
LINE
5
860
100
AcDbEntity
100
AcDbLine
8
3
62
256
370
-1
6
ByLayer
10
-1.73013548086
20
5.4540780839
30
0.0
11
-1.8704732865
21
5.96868751559
31
0.0
0
LINE
5
861
100
AcDbEntity
100
AcDbLine
8
3
62
256
370
-1
6
ByLayer
10
-1.8704732865
20
5.96868751559
30
0.0
11
-2.00640495209
21
6.48164713845
31
0.0
0
LINE
5
862
100
AcDbEntity
100
AcDbLine
8
3
62
256
370
-1
6
ByLayer
10
-2.00640495209
20
6.48164713845
30
0.0
11
-2.13792342852
21
6.99283244428
31
0.0
0
LINE
5
863
100
AcDbEntity
100
AcDbLine
8
3
62
256
370
-1
6
ByLayer
10
-2.13792342852
20
6.99283244428
30
0.0
11
-2.26502332928
21
7.50211920768
31
0.0
0
LINE
5
864
100
AcDbEntity
100
AcDbLine
8
3
62
256
370
-1
6
ByLayer
10
-2.26502332928
20
7.50211920768
30
0.0
11
-2.38770092953
21
8.00938352033
31
0.0
0
LINE
5
865
100
AcDbEntity
100
AcDbLine
8
3
62
256
370
-1
6
ByLayer
10
-2.38770092953
20
8.00938352033
30
0.0
11
-2.50595416453
21
8.51450182511
31
0.0
0
LINE
5
866
100
AcDbEntity
100
AcDbLine
8
3
62
256
370
-1
6
ByLayer
10
-2.50595416453
20
8.51450182511
30
0.0
11
-2.61978262763
21
9.01735095026
31
0.0
0
LINE
5
867
100
AcDbEntity
100
AcDbLine
8
3
62
256
370
-1
6
ByLayer
10
-2.61978262763
20
9.01735095026
30
0.0
11
-2.72918756764
21
9.51780814333
31
0.0
0
LINE
5
868
100
AcDbEntity
100
AcDbLine
8
3
62
256
370
-1
6
ByLayer
10
-2.72918756764
20
9.51780814333
30
0.0
11
-2.83417188573
21
10.0157511051
31
0.0
0
LINE
5
869
100
AcDbEntity
100
AcDbLine
8
3
62
256
370
-1
6
ByLayer
10
-2.83417188573
20
10.0157511051
30
0.0
11
-2.93474013174
21
10.5110580235
31
0.0
0
LINE
5
870
100
AcDbEntity
100
AcDbLine
8
3
62
256
370
-1
6
ByLayer
10
-2.93474013174
20
10.5110580235
30
0.0
11
-3.03089849996
21
11.0036076072
31
0.0
0
LINE
5
871
100
AcDbEntity
100
AcDbLine
8
3
62
256
370
-1
6
ByLayer
10
-3.03089849996
20
11.0036076072
30
0.0
11
-3.1226548244
21
11.493279119
31
0.0
0
LINE
5
872
100
AcDbEntity
100
AcDbLine
8
3
62
256
370
-1
6
ByLayer
10
-3.1226548244
20
11.493279119
30
0.0
11
-3.21001857353
21
11.9799524096
31
0.0
0
LINE
5
873
100
AcDbEntity
100
AcDbLine
8
3
62
256
370
-1
6
ByLayer
10
-3.21001857353
20
11.9799524096
30
0.0
11
-3.2930008444
21
12.4635079509
31
0.0
0
LINE
5
874
100
AcDbEntity
100
AcDbLine
8
3
62
256
370
-1
6
ByLayer
10
-3.2930008444
20
12.4635079509
30
0.0
11
-3.3716143564
21
12.9438268687
31
0.0
0
LINE
5
875
100
AcDbEntity
100
AcDbLine
8
3
62
256
370
-1
6
ByLayer
10
-3.3716143564
20
12.9438268687
30
0.0
11
-3.44587344429
21
13.4207909761
31
0.0
0
LINE
5
876
100
AcDbEntity
100
AcDbLine
8
3
62
256
370
-1
6
ByLayer
10
-3.44587344429
20
13.4207909761
30
0.0
11
-3.5157940509
21
13.8942828061
31
0.0
0
LINE
5
877
100
AcDbEntity
100
AcDbLine
8
3
62
256
370
-1
6
ByLayer
10
-3.5157940509
20
13.8942828061
30
0.0
11
-3.58139371914
21
14.3641856442
31
0.0
0
LINE
5
878
100
AcDbEntity
100
AcDbLine
8
3
62
256
370
-1
6
ByLayer
10
-3.58139371914
20
14.3641856442
30
0.0
11
-3.64269158363
21
14.8303835609
31
0.0
0
LINE
5
879
100
AcDbEntity
100
AcDbLine
8
3
62
256
370
-1
6
ByLayer
10
-3.64269158363
20
14.8303835609
30
0.0
11
-3.69970836169
21
15.2927614439
31
0.0
0
LINE
5
880
100
AcDbEntity
100
AcDbLine
8
3
62
256
370
-1
6
ByLayer
10
-3.69970836169
20
15.2927614439
30
0.0
11
-3.75246634395
21
15.7512050299
31
0.0
0
LINE
5
881
100
AcDbEntity
100
AcDbLine
8
3
62
256
370
-1
6
ByLayer
10
-3.75246634395
20
15.7512050299
30
0.0
11
-3.8009893843
21
16.2056009369
31
0.0
0
LINE
5
882
100
AcDbEntity
100
AcDbLine
8
3
62
256
370
-1
6
ByLayer
10
-3.8009893843
20
16.2056009369
30
0.0
11
-3.84530288945
21
16.655836695
31
0.0
0
LINE
5
883
100
AcDbEntity
100
AcDbLine
8
3
62
256
370
-1
6
ByLayer
10
-3.84530288945
20
16.655836695
30
0.0
11
-3.88543380795
21
17.1018007783
31
0.0
0
LINE
5
884
100
AcDbEntity
100
AcDbLine
8
3
62
256
370
-1
6
ByLayer
10
-3.88543380795
20
17.1018007783
30
0.0
11
-3.92141061869
21
17.5433826358
31
0.0
0
LINE
5
885
100
AcDbEntity
100
AcDbLine
8
3
62
256
370
-1
6
ByLayer
10
-3.92141061869
20
17.5433826358
30
0.0
11
-3.95326331894
21
17.980472722
31
0.0
0
LINE
5
886
100
AcDbEntity
100
AcDbLine
8
3
62
256
370
-1
6
ByLayer
10
-3.95326331894
20
17.980472722
30
0.0
11
-3.98102341187
21
18.4129625276
31
0.0
0
LINE
5
887
100
AcDbEntity
100
AcDbLine
8
3
62
256
370
-1
6
ByLayer
10
-3.98102341187
20
18.4129625276
30
0.0
11
-4.00472389358
21
18.8407446099
31
0.0
0
LINE
5
888
100
AcDbEntity
100
AcDbLine
8
3
62
256
370
-1
6
ByLayer
10
-4.00472389358
20
18.8407446099
30
0.0
11
-4.02439923968
21
19.2637126223
31
0.0
0
LINE
5
889
100
AcDbEntity
100
AcDbLine
8
3
62
256
370
-1
6
ByLayer
10
-4.02439923968
20
19.2637126223
30
0.0
11
-4.04008539137
21
19.6817613446
31
0.0
0
LINE
5
890
100
AcDbEntity
100
AcDbLine
8
3
62
256
370
-1
6
ByLayer
10
-4.04008539137
20
19.6817613446
30
0.0
11
-4.05181974103
21
20.0947867116
31
0.0
0
LINE
5
891
100
AcDbEntity
100
AcDbLine
8
3
62
256
370
-1
6
ByLayer
10
-4.05181974103
20
20.0947867116
30
0.0
11
-4.05964111739
21
20.5026858429
31
0.0
0
LINE
5
892
100
AcDbEntity
100
AcDbLine
8
3
62
256
370
-1
6
ByLayer
10
-4.05964111739
20
20.5026858429
30
0.0
11
-4.06358977016
21
20.9053570713
31
0.0
0
LINE
5
893
100
AcDbEntity
100
AcDbLine
8
3
62
256
370
-1
6
ByLayer
10
-4.06358977016
20
20.9053570713
30
0.0
11
-4.06370735427
21
21.302699971
31
0.0
0
LINE
5
894
100
AcDbEntity
100
AcDbLine
8
3
62
256
370
-1
6
ByLayer
10
-4.06370735427
20
21.302699971
30
0.0
11
-4.06003691366
21
21.694615386
31
0.0
0
LINE
5
895
100
AcDbEntity
100
AcDbLine
8
3
62
256
370
-1
6
ByLayer
10
-4.06003691366
20
21.694615386
30
0.0
11
-4.05262286451
21
22.0810054577
31
0.0
0
LINE
5
896
100
AcDbEntity
100
AcDbLine
8
3
62
256
370
-1
6
ByLayer
10
-4.05262286451
20
22.0810054577
30
0.0
11
-4.04151097822
21
22.4617736522
31
0.0
0
LINE
5
897
100
AcDbEntity
100
AcDbLine
8
3
62
256
370
-1
6
ByLayer
10
-4.04151097822
20
22.4617736522
30
0.0
11
-4.02674836373
21
22.8368247874
31
0.0
0
LINE
5
898
100
AcDbEntity
100
AcDbLine
8
3
62
256
370
-1
6
ByLayer
10
-4.02674836373
20
22.8368247874
30
0.0
11
-4.0083834496
21
23.2060650595
31
0.0
0
LINE
5
899
100
AcDbEntity
100
AcDbLine
8
3
62
256
370
-1
6
ByLayer
10
-4.0083834496
20
23.2060650595
30
0.0
11
-3.98646596556
21
23.5694020694
31
0.0
0
LINE
5
900
100
AcDbEntity
100
AcDbLine
8
3
62
256
370
-1
6
ByLayer
10
-3.98646596556
20
23.5694020694
30
0.0
11
-3.96104692364
21
23.9267448485
31
0.0
0
LINE
5
901
100
AcDbEntity
100
AcDbLine
8
3
62
256
370
-1
6
ByLayer
10
-3.96104692364
20
23.9267448485
30
0.0
11
-3.93217859896
21
24.2780038841
31
0.0
0
LINE
5
902
100
AcDbEntity
100
AcDbLine
8
3
62
256
370
-1
6
ByLayer
10
-3.93217859896
20
24.2780038841
30
0.0
11
-3.89991451002
21
24.6230911447
31
0.0
0
LINE
5
903
100
AcDbEntity
100
AcDbLine
8
3
62
256
370
-1
6
ByLayer
10
-3.89991451002
20
24.6230911447
30
0.0
11
-3.86430939865
21
24.9619201045
31
0.0
0
LINE
5
904
100
AcDbEntity
100
AcDbLine
8
3
62
256
370
-1
6
ByLayer
10
-3.86430939865
20
24.9619201045
30
0.0
11
-3.82541920955
21
25.2944057673
31
0.0
0
LINE
5
905
100
AcDbEntity
100
AcDbLine
8
3
62
256
370
-1
6
ByLayer
10
-3.82541920955
20
25.2944057673
30
0.0
11
-3.78330106944
21
25.6204646912
31
0.0
0
LINE
5
906
100
AcDbEntity
100
AcDbLine
8
3
62
256
370
-1
6
ByLayer
10
-3.78330106944
20
25.6204646912
30
0.0
11
-3.73801326583
21
25.9400150111
31
0.0
0
LINE
5
907
100
AcDbEntity
100
AcDbLine
8
3
62
256
370
-1
6
ByLayer
10
-3.73801326583
20
25.9400150111
30
0.0
11
-3.68961522542
21
26.2529764622
31
0.0
0
LINE
5
908
100
AcDbEntity
100
AcDbLine
8
3
62
256
370
-1
6
ByLayer
10
-3.68961522542
20
26.2529764622
30
0.0
11
-3.63816749211
21
26.5592704023
31
0.0
0
LINE
5
909
100
AcDbEntity
100
AcDbLine
8
3
62
256
370
-1
6
ByLayer
10
-3.63816749211
20
26.5592704023
30
0.0
11
-3.5837317047
21
26.8588198338
31
0.0
0
LINE
5
910
100
AcDbEntity
100
AcDbLine
8
3
62
256
370
-1
6
ByLayer
10
-3.5837317047
20
26.8588198338
30
0.0
11
-3.52637057418
21
27.1515494257
31
0.0
0
LINE
5
911
100
AcDbEntity
100
AcDbLine
8
3
62
256
370
-1
6
ByLayer
10
-3.52637057418
20
27.1515494257
30
0.0
11
-3.46614786072
21
27.4373855342
31
0.0
0
LINE
5
912
100
AcDbEntity
100
AcDbLine
8
3
62
256
370
-1
6
ByLayer
10
-3.46614786072
20
27.4373855342
30
0.0
11
-3.40312835029
21
27.7162562236
31
0.0
0
LINE
5
913
100
AcDbEntity
100
AcDbLine
8
3
62
256
370
-1
6
ByLayer
10
-3.40312835029
20
27.7162562236
30
0.0
11
-3.33737783097
21
27.9880912867
31
0.0
0
LINE
5
914
100
AcDbEntity
100
AcDbLine
8
3
62
256
370
-1
6
ByLayer
10
-3.33737783097
20
27.9880912867
30
0.0
11
-3.26896306894
21
28.2528222643
31
0.0
0
LINE
5
915
100
AcDbEntity
100
AcDbLine
8
3
62
256
370
-1
6
ByLayer
10
-3.26896306894
20
28.2528222643
30
0.0
11
-3.19795178414
21
28.5103824644
31
0.0
0
LINE
5
916
100
AcDbEntity
100
AcDbLine
8
3
62
256
370
-1
6
ByLayer
10
-3.19795178414
20
28.5103824644
30
0.0
11
-3.12441262562
21
28.7607069811
31
0.0
0
LINE
5
917
100
AcDbEntity
100
AcDbLine
8
3
62
256
370
-1
6
ByLayer
10
-3.12441262562
20
28.7607069811
30
0.0
11
-3.04841514661
21
29.0037327126
31
0.0
0
LINE
5
918
100
AcDbEntity
100
AcDbLine
8
3
62
256
370
-1
6
ByLayer
10
-3.04841514661
20
29.0037327126
30
0.0
11
-2.97002977929
21
29.2393983792
31
0.0
0
LINE
5
919
100
AcDbEntity
100
AcDbLine
8
3
62
256
370
-1
6
ByLayer
10
-2.97002977929
20
29.2393983792
30
0.0
11
-2.88932780927
21
29.4676445403
31
0.0
0
LINE
5
920
100
AcDbEntity
100
AcDbLine
8
3
62
256
370
-1
6
ByLayer
10
-2.88932780927
20
29.4676445403
30
0.0
11
-2.80638134984
21
29.6884136114
31
0.0
0
LINE
5
921
100
AcDbEntity
100
AcDbLine
8
3
62
256
370
-1
6
ByLayer
10
-2.80638134984
20
29.6884136114
30
0.0
11
-2.72126331584
21
29.9016498798
31
0.0
0
LINE
5
922
100
AcDbEntity
100
AcDbLine
8
3
62
256
370
-1
6
ByLayer
10
-2.72126331584
20
29.9016498798
30
0.0
11
-2.63404739744
21
30.1072995207
31
0.0
0
LINE
5
923
100
AcDbEntity
100
AcDbLine
8
3
62
256
370
-1
6
ByLayer
10
-2.63404739744
20
30.1072995207
30
0.0
11
-2.54480803352
21
30.3053106124
31
0.0
0
LINE
5
924
100
AcDbEntity
100
AcDbLine
8
3
62
256
370
-1
6
ByLayer
10
-2.54480803352
20
30.3053106124
30
0.0
11
-2.45362038487
21
30.4956331503
31
0.0
0
LINE
5
925
100
AcDbEntity
100
AcDbLine
8
3
62
256
370
-1
6
ByLayer
10
-2.45362038487
20
30.4956331503
30
0.0
11
-2.36056030719
21
30.6782190617
31
0.0
0
LINE
5
926
100
AcDbEntity
100
AcDbLine
8
3
62
256
370
-1
6
ByLayer
10
-2.36056030719
20
30.6782190617
30
0.0
11
-2.26570432381
21
30.8530222189
31
0.0
0
LINE
5
927
100
AcDbEntity
100
AcDbLine
8
3
62
256
370
-1
6
ByLayer
10
-2.26570432381
20
30.8530222189
30
0.0
11
-2.16912959824
21
31.019998452
31
0.0
0
LINE
5
928
100
AcDbEntity
100
AcDbLine
8
3
62
256
370
-1
6
ByLayer
10
-2.16912959824
20
31.019998452
30
0.0
11
-2.07091390647
21
31.179105562
31
0.0
0
LINE
5
929
100
AcDbEntity
100
AcDbLine
8
3
62
256
370
-1
6
ByLayer
10
-2.07091390647
20
31.179105562
30
0.0
11
-1.97113560909
21
31.3303033321
31
0.0
0
LINE
5
930
100
AcDbEntity
100
AcDbLine
8
3
62
256
370
-1
6
ByLayer
10
-1.97113560909
20
31.3303033321
30
0.0
11
-1.86987362329
21
31.473553539
31
0.0
0
LINE
5
931
100
AcDbEntity
100
AcDbLine
8
3
62
256
370
-1
6
ByLayer
10
-1.86987362329
20
31.473553539
30
0.0
11
-1.76720739453
21
31.6088199642
31
0.0
0
LINE
5
932
100
AcDbEntity
100
AcDbLine
8
3
62
256
370
-1
6
ByLayer
10
-1.76720739453
20
31.6088199642
30
0.0
11
-1.66321686821
21
31.7360684037
31
0.0
0
LINE
5
933
100
AcDbEntity
100
AcDbLine
8
3
62
256
370
-1
6
ByLayer
10
-1.66321686821
20
31.7360684037
30
0.0
11
-1.55798246106
21
31.8552666775
31
0.0
0
LINE
5
934
100
AcDbEntity
100
AcDbLine
8
3
62
256
370
-1
6
ByLayer
10
-1.55798246106
20
31.8552666775
30
0.0
11
-1.45158503241
21
31.9663846393
31
0.0
0
LINE
5
935
100
AcDbEntity
100
AcDbLine
8
3
62
256
370
-1
6
ByLayer
10
-1.45158503241
20
31.9663846393
30
0.0
11
-1.34410585537
21
32.0693941844
31
0.0
0
LINE
5
936
100
AcDbEntity
100
AcDbLine
8
3
62
256
370
-1
6
ByLayer
10
-1.34410585537
20
32.0693941844
30
0.0
11
-1.2356265878
21
32.164269258
31
0.0
0
LINE
5
937
100
AcDbEntity
100
AcDbLine
8
3
62
256
370
-1
6
ByLayer
10
-1.2356265878
20
32.164269258
30
0.0
11
-1.12622924317
21
32.2509858621
31
0.0
0
LINE
5
938
100
AcDbEntity
100
AcDbLine
8
3
62
256
370
-1
6
ByLayer
10
-1.12622924317
20
32.2509858621
30
0.0
11
-1.0159961614
21
32.3295220629
31
0.0
0
LINE
5
939
100
AcDbEntity
100
AcDbLine
8
3
62
256
370
-1
6
ByLayer
10
-1.0159961614
20
32.3295220629
30
0.0
11
-0.905009979444
21
32.3998579962
31
0.0
0
LINE
5
940
100
AcDbEntity
100
AcDbLine
8
3
62
256
370
-1
6
ByLayer
10
-0.905009979444
20
32.3998579962
30
0.0
11
-0.793353601889
21
32.4619758736
31
0.0
0
LINE
5
941
100
AcDbEntity
100
AcDbLine
8
3
62
256
370
-1
6
ByLayer
10
-0.793353601889
20
32.4619758736
30
0.0
11
-0.68111017144
21
32.5158599874
31
0.0
0
LINE
5
942
100
AcDbEntity
100
AcDbLine
8
3
62
256
370
-1
6
ByLayer
10
-0.68111017144
20
32.5158599874
30
0.0
11
-0.568363039314
21
32.5614967146
31
0.0
0
LINE
5
943
100
AcDbEntity
100
AcDbLine
8
3
62
256
370
-1
6
ByLayer
10
-0.568363039314
20
32.5614967146
30
0.0
11
-0.455195735576
21
32.5988745214
31
0.0
0
LINE
5
944
100
AcDbEntity
100
AcDbLine
8
3
62
256
370
-1
6
ByLayer
10
-0.455195735576
20
32.5988745214
30
0.0
11
-0.341691939425
21
32.6279839659
31
0.0
0
LINE
5
945
100
AcDbEntity
100
AcDbLine
8
3
62
256
370
-1
6
ByLayer
10
-0.341691939425
20
32.6279839659
30
0.0
11
-0.227935449418
21
32.6488177011
31
0.0
0
LINE
5
946
100
AcDbEntity
100
AcDbLine
8
3
62
256
370
-1
6
ByLayer
10
-0.227935449418
20
32.6488177011
30
0.0
11
-0.114010153666
21
32.6613704767
31
0.0
0
LINE
5
947
100
AcDbEntity
100
AcDbLine
8
3
62
256
370
-1
6
ByLayer
10
-0.114010153666
20
32.6613704767
30
0.0
11
-4.00025492435e-15
21
32.6656391408
31
0.0
0
LINE
5
948
100
AcDbEntity
100
AcDbLine
8
3
62
256
370
-1
6
ByLayer
10
-4.00025492435e-15
20
32.6656391408
30
0.0
11
0.114011033889
21
32.6616226407
31
0.0
0
LINE
5
949
100
AcDbEntity
100
AcDbLine
8
3
62
256
370
-1
6
ByLayer
10
0.114011033889
20
32.6616226407
30
0.0
11
0.227938970308
21
32.6493220232
31
0.0
0
LINE
5
950
100
AcDbEntity
100
AcDbLine
8
3
62
256
370
-1
6
ByLayer
10
0.227938970308
20
32.6493220232
30
0.0
11
0.341699861433
21
32.6287404343
31
0.0
0
LINE
5
951
100
AcDbEntity
100
AcDbLine
8
3
62
256
370
-1
6
ByLayer
10
0.341699861433
20
32.6287404343
30
0.0
11
0.455209819159
21
32.5998831182
31
0.0
0
LINE
5
952
100
AcDbEntity
100
AcDbLine
8
3
62
256
370
-1
6
ByLayer
10
0.455209819159
20
32.5998831182
30
0.0
11
0.56838504494
21
32.5627574161
31
0.0
0
LINE
5
953
100
AcDbEntity
100
AcDbLine
8
3
62
256
370
-1
6
ByLayer
10
0.56838504494
20
32.5627574161
30
0.0
11
0.681141859592
21
32.517372764
31
0.0
0
LINE
5
954
100
AcDbEntity
100
AcDbLine
8
3
62
256
370
-1
6
ByLayer
10
0.681141859592
20
32.517372764
30
0.0
11
0.793396733065
21
32.4637406897
31
0.0
0
LINE
5
955
100
AcDbEntity
100
AcDbLine
8
3
62
256
370
-1
6
ByLayer
10
0.793396733065
20
32.4637406897
30
0.0
11
0.905066314162
21
32.4018748103
31
0.0
0
LINE
5
956
100
AcDbEntity
100
AcDbLine
8
3
62
256
370
-1
6
ByLayer
10
0.905066314162
20
32.4018748103
30
0.0
11
1.0160674602
21
32.3317908275
31
0.0
0
LINE
5
957
100
AcDbEntity
100
AcDbLine
8
3
62
256
370
-1
6
ByLayer
10
1.0160674602
20
32.3317908275
30
0.0
11
1.12631726662
21
32.2535065239
31
0.0
0
LINE
5
958
100
AcDbEntity
100
AcDbLine
8
3
62
256
370
-1
6
ByLayer
10
1.12631726662
20
32.2535065239
30
0.0
11
1.23573309648
21
32.1670417575
31
0.0
0
LINE
5
959
100
AcDbEntity
100
AcDbLine
8
3
62
256
370
-1
6
ByLayer
10
1.23573309648
20
32.1670417575
30
0.0
11
1.34423260993
21
32.0724184565
31
0.0
0
LINE
5
960
100
AcDbEntity
100
AcDbLine
8
3
62
256
370
-1
6
ByLayer
10
1.34423260993
20
32.0724184565
30
0.0
11
1.45173379349
21
31.9696606127
31
0.0
0
LINE
5
961
100
AcDbEntity
100
AcDbLine
8
3
62
256
370
-1
6
ByLayer
10
1.45173379349
20
31.9696606127
30
0.0
11
1.55815498936
21
31.8587942751
31
0.0
0
LINE
5
962
100
AcDbEntity
100
AcDbLine
8
3
62
256
370
-1
6
ByLayer
10
1.55815498936
20
31.8587942751
30
0.0
11
1.66341492448
21
31.7398475424
31
0.0
0
LINE
5
963
100
AcDbEntity
100
AcDbLine
8
3
62
256
370
-1
6
ByLayer
10
1.66341492448
20
31.7398475424
30
0.0
11
1.76743273954
21
31.6128505551
31
0.0
0
LINE
5
964
100
AcDbEntity
100
AcDbLine
8
3
62
256
370
-1
6
ByLayer
10
1.76743273954
20
31.6128505551
30
0.0
11
1.87012801786
21
31.4778354869
31
0.0
0
LINE
5
965
100
AcDbEntity
100
AcDbLine
8
3
62
256
370
-1
6
ByLayer
10
1.87012801786
20
31.4778354869
30
0.0
11
1.97142081411
21
31.334836536
31
0.0
0
LINE
5
966
100
AcDbEntity
100
AcDbLine
8
3
62
256
370
-1
6
ByLayer
10
1.97142081411
20
31.334836536
30
0.0
11
2.07123168285
21
31.1838899151
31
0.0
0
LINE
5
967
100
AcDbEntity
100
AcDbLine
8
3
62
256
370
-1
6
ByLayer
10
2.07123168285
20
31.1838899151
30
0.0
11
2.16948170696
21
31.0250338413
31
0.0
0
LINE
5
968
100
AcDbEntity
100
AcDbLine
8
3
62
256
370
-1
6
ByLayer
10
2.16948170696
20
31.0250338413
30
0.0
11
2.26609252591
21
30.8583085256
31
0.0
0
LINE
5
969
100
AcDbEntity
100
AcDbLine
8
3
62
256
370
-1
6
ByLayer
10
2.26609252591
20
30.8583085256
30
0.0
11
2.36098636376
21
30.683756161
31
0.0
0
LINE
5
970
100
AcDbEntity
100
AcDbLine
8
3
62
256
370
-1
6
ByLayer
10
2.36098636376
20
30.683756161
30
0.0
11
2.45408605706
21
30.5014209114
31
0.0
0
LINE
5
971
100
AcDbEntity
100
AcDbLine
8
3
62
256
370
-1
6
ByLayer
10
2.45408605706
20
30.5014209114
30
0.0
11
2.54531508256
21
30.3113488984
31
0.0
0
LINE
5
972
100
AcDbEntity
100
AcDbLine
8
3
62
256
370
-1
6
ByLayer
10
2.54531508256
20
30.3113488984
30
0.0
11
2.63459758462
21
30.1135881889
31
0.0
0
LINE
5
973
100
AcDbEntity
100
AcDbLine
8
3
62
256
370
-1
6
ByLayer
10
2.63459758462
20
30.1135881889
30
0.0
11
2.7218584025
21
29.9081887813
31
0.0
0
LINE
5
974
100
AcDbEntity
100
AcDbLine
8
3
62
256
370
-1
6
ByLayer
10
2.7218584025
20
29.9081887813
30
0.0
11
2.80702309741
21
29.6952025916
31
0.0
0
LINE
5
975
100
AcDbEntity
100
AcDbLine
8
3
62
256
370
-1
6
ByLayer
10
2.80702309741
20
29.6952025916
30
0.0
11
2.89001797926
21
29.4746834384
31
0.0
0
LINE
5
976
100
AcDbEntity
100
AcDbLine
8
3
62
256
370
-1
6
ByLayer
10
2.89001797926
20
29.4746834384
30
0.0
11
2.97077013326
21
29.2466870283
31
0.0
0
LINE
5
977
100
AcDbEntity
100
AcDbLine
8
3
62
256
370
-1
6
ByLayer
10
2.97077013326
20
29.2466870283
30
0.0
11
3.04920744623
21
29.01127094
31
0.0
0
LINE
5
978
100
AcDbEntity
100
AcDbLine
8
3
62
256
370
-1
6
ByLayer
10
3.04920744623
20
29.01127094
30
0.0
11
3.12525863262
21
28.7684946079
31
0.0
0
LINE
5
979
100
AcDbEntity
100
AcDbLine
8
3
62
256
370
-1
6
ByLayer
10
3.12525863262
20
28.7684946079
30
0.0
11
3.19885326034
21
28.5184193058
31
0.0
0
LINE
5
980
100
AcDbEntity
100
AcDbLine
8
3
62
256
370
-1
6
ByLayer
10
3.19885326034
20
28.5184193058
30
0.0
11
3.26992177624
21
28.2611081294
31
0.0
0
LINE
5
981
100
AcDbEntity
100
AcDbLine
8
3
62
256
370
-1
6
ByLayer
10
3.26992177624
20
28.2611081294
30
0.0
11
3.33839553136
21
27.9966259786
31
0.0
0
LINE
5
982
100
AcDbEntity
100
AcDbLine
8
3
62
256
370
-1
6
ByLayer
10
3.33839553136
20
27.9966259786
30
0.0
11
3.40420680584
21
27.7250395392
31
0.0
0
LINE
5
983
100
AcDbEntity
100
AcDbLine
8
3
62
256
370
-1
6
ByLayer
10
3.40420680584
20
27.7250395392
30
0.0
11
3.46728883361
21
27.4464172646
31
0.0
0
LINE
5
984
100
AcDbEntity
100
AcDbLine
8
3
62
256
370
-1
6
ByLayer
10
3.46728883361
20
27.4464172646
30
0.0
11
3.52757582666
21
27.1608293558
31
0.0
0
LINE
5
985
100
AcDbEntity
100
AcDbLine
8
3
62
256
370
-1
6
ByLayer
10
3.52757582666
20
27.1608293558
30
0.0
11
3.58500299913
21
26.8683477425
31
0.0
0
LINE
5
986
100
AcDbEntity
100
AcDbLine
8
3
62
256
370
-1
6
ByLayer
10
3.58500299913
20
26.8683477425
30
0.0
11
3.63950659094
21
26.5690460622
31
0.0
0
LINE
5
987
100
AcDbEntity
100
AcDbLine
8
3
62
256
370
-1
6
ByLayer
10
3.63950659094
20
26.5690460622
30
0.0
11
3.6910238912
21
26.26299964
31
0.0
0
LINE
5
988
100
AcDbEntity
100
AcDbLine
8
3
62
256
370
-1
6
ByLayer
10
3.6910238912
20
26.26299964
30
0.0
11
3.7394932612
21
25.9502854675
31
0.0
0
LINE
5
989
100
AcDbEntity
100
AcDbLine
8
3
62
256
370
-1
6
ByLayer
10
3.7394932612
20
25.9502854675
30
0.0
11
3.78485415715
21
25.6309821806
31
0.0
0
LINE
5
990
100
AcDbEntity
100
AcDbLine
8
3
62
256
370
-1
6
ByLayer
10
3.78485415715
20
25.6309821806
30
0.0
11
3.82704715244
21
25.3051700381
31
0.0
0
LINE
5
991
100
AcDbEntity
100
AcDbLine
8
3
62
256
370
-1
6
ByLayer
10
3.82704715244
20
25.3051700381
30
0.0
11
3.86601395967
21
24.9729308988
31
0.0
0
LINE
5
992
100
AcDbEntity
100
AcDbLine
8
3
62
256
370
-1
6
ByLayer
10
3.86601395967
20
24.9729308988
30
0.0
11
3.90169745223
21
24.6343481988
31
0.0
0
LINE
5
993
100
AcDbEntity
100
AcDbLine
8
3
62
256
370
-1
6
ByLayer
10
3.90169745223
20
24.6343481988
30
0.0
11
3.93404168552
21
24.2895069279
31
0.0
0
LINE
5
994
100
AcDbEntity
100
AcDbLine
8
3
62
256
370
-1
6
ByLayer
10
3.93404168552
20
24.2895069279
30
0.0
11
3.96299191781
21
23.9384936058
31
0.0
0
LINE
5
995
100
AcDbEntity
100
AcDbLine
8
3
62
256
370
-1
6
ByLayer
10
3.96299191781
20
23.9384936058
30
0.0
11
3.98849463071
21
23.5813962579
31
0.0
0
LINE
5
996
100
AcDbEntity
100
AcDbLine
8
3
62
256
370
-1
6
ByLayer
10
3.98849463071
20
23.5813962579
30
0.0
11
4.01049754921
21
23.2183043908
31
0.0
0
LINE
5
997
100
AcDbEntity
100
AcDbLine
8
3
62
256
370
-1
6
ByLayer
10
4.01049754921
20
23.2183043908
30
0.0
11
4.02894966138
21
22.8493089667
31
0.0
0
LINE
5
998
100
AcDbEntity
100
AcDbLine
8
3
62
256
370
-1
6
ByLayer
10
4.02894966138
20
22.8493089667
30
0.0
11
4.04380123761
21
22.4745023788
31
0.0
0
LINE
5
999
100
AcDbEntity
100
AcDbLine
8
3
62
256
370
-1
6
ByLayer
10
4.04380123761
20
22.4745023788
30
0.0
11
4.05500384946
21
22.0939784244
31
0.0
0
LINE
5
1000
100
AcDbEntity
100
AcDbLine
8
3
62
256
370
-1
6
ByLayer
10
4.05500384946
20
22.0939784244
30
0.0
11
4.06251038806
21
21.7078322796
31
0.0
0
LINE
5
1001
100
AcDbEntity
100
AcDbLine
8
3
62
256
370
-1
6
ByLayer
10
4.06251038806
20
21.7078322796
30
0.0
11
4.06627508217
21
21.316160472
31
0.0
0
LINE
5
1002
100
AcDbEntity
100
AcDbLine
8
3
62
256
370
-1
6
ByLayer
10
4.06627508217
20
21.316160472
30
0.0
11
4.06625351567
21
20.919060854
31
0.0
0
LINE
5
1003
100
AcDbEntity
100
AcDbLine
8
3
62
256
370
-1
6
ByLayer
10
4.06625351567
20
20.919060854
30
0.0
11
4.06240264477
21
20.5166325754
31
0.0
0
LINE
5
1004
100
AcDbEntity
100
AcDbLine
8
3
62
256
370
-1
6
ByLayer
10
4.06240264477
20
20.5166325754
30
0.0
11
4.05468081464
21
20.1089760555
31
0.0
0
LINE
5
1005
100
AcDbEntity
100
AcDbLine
8
3
62
256
370
-1
6
ByLayer
10
4.05468081464
20
20.1089760555
30
0.0
11
4.04304777567
21
19.6961929556
31
0.0
0
LINE
5
1006
100
AcDbEntity
100
AcDbLine
8
3
62
256
370
-1
6
ByLayer
10
4.04304777567
20
19.6961929556
30
0.0
11
4.02746469925
21
19.2783861496
31
0.0
0
LINE
5
1007
100
AcDbEntity
100
AcDbLine
8
3
62
256
370
-1
6
ByLayer
10
4.02746469925
20
19.2783861496
30
0.0
11
4.0078941931
21
18.8556596965
31
0.0
0
LINE
5
1008
100
AcDbEntity
100
AcDbLine
8
3
62
256
370
-1
6
ByLayer
10
4.0078941931
20
18.8556596965
30
0.0
11
3.98430031615
21
18.4281188102
31
0.0
0
LINE
5
1009
100
AcDbEntity
100
AcDbLine
8
3
62
256
370
-1
6
ByLayer
10
3.98430031615
20
18.4281188102
30
0.0
11
3.95664859288
21
17.9958698308
31
0.0
0
LINE
5
1010
100
AcDbEntity
100
AcDbLine
8
3
62
256
370
-1
6
ByLayer
10
3.95664859288
20
17.9958698308
30
0.0
11
3.9249060273
21
17.559020195
31
0.0
0
LINE
5
1011
100
AcDbEntity
100
AcDbLine
8
3
62
256
370
-1
6
ByLayer
10
3.9249060273
20
17.559020195
30
0.0
11
3.88904111635
21
17.1176784055
31
0.0
0
LINE
5
1012
100
AcDbEntity
100
AcDbLine
8
3
62
256
370
-1
6
ByLayer
10
3.88904111635
20
17.1176784055
30
0.0
11
3.84902386286
21
16.6719540015
31
0.0
0
LINE
5
1013
100
AcDbEntity
100
AcDbLine
8
3
62
256
370
-1
6
ByLayer
10
3.84902386286
20
16.6719540015
30
0.0
11
3.80482578806
21
16.2219575278
31
0.0
0
LINE
5
1014
100
AcDbEntity
100
AcDbLine
8
3
62
256
370
-1
6
ByLayer
10
3.80482578806
20
16.2219575278
30
0.0
11
3.7564199435
21
15.7678005038
31
0.0
0
LINE
5
1015
100
AcDbEntity
100
AcDbLine
8
3
62
256
370
-1
6
ByLayer
10
3.7564199435
20
15.7678005038
30
0.0
11
3.70378092257
21
15.3095953929
31
0.0
0
LINE
5
1016
100
AcDbEntity
100
AcDbLine
8
3
62
256
370
-1
6
ByLayer
10
3.70378092257
20
15.3095953929
30
0.0
11
3.64688487147
21
14.8474555709
31
0.0
0
LINE
5
1017
100
AcDbEntity
100
AcDbLine
8
3
62
256
370
-1
6
ByLayer
10
3.64688487147
20
14.8474555709
30
0.0
11
3.58570949969
21
14.3814952946
31
0.0
0
LINE
5
1018
100
AcDbEntity
100
AcDbLine
8
3
62
256
370
-1
6
ByLayer
10
3.58570949969
20
14.3814952946
30
0.0
11
3.52023408999
21
13.9118296698
31
0.0
0
LINE
5
1019
100
AcDbEntity
100
AcDbLine
8
3
62
256
370
-1
6
ByLayer
10
3.52023408999
20
13.9118296698
30
0.0
11
3.45043950787
21
13.4385746196
31
0.0
0
LINE
5
1020
100
AcDbEntity
100
AcDbLine
8
3
62
256
370
-1
6
ByLayer
10
3.45043950787
20
13.4385746196
30
0.0
11
3.37630821048
21
12.9618468521
31
0.0
0
LINE
5
1021
100
AcDbEntity
100
AcDbLine
8
3
62
256
370
-1
6
ByLayer
10
3.37630821048
20
12.9618468521
30
0.0
11
3.29782425512
21
12.4817638278
31
0.0
0
LINE
5
1022
100
AcDbEntity
100
AcDbLine
8
3
62
256
370
-1
6
ByLayer
10
3.29782425512
20
12.4817638278
30
0.0
11
3.21497330709
21
11.998443727
31
0.0
0
LINE
5
1023
100
AcDbEntity
100
AcDbLine
8
3
62
256
370
-1
6
ByLayer
10
3.21497330709
20
11.998443727
30
0.0
11
3.1277426471
21
11.5120054175
31
0.0
0
LINE
5
1024
100
AcDbEntity
100
AcDbLine
8
3
62
256
370
-1
6
ByLayer
10
3.1277426471
20
11.5120054175
30
0.0
11
3.03612117818
21
11.0225684209
31
0.0
0
LINE
5
1025
100
AcDbEntity
100
AcDbLine
8
3
62
256
370
-1
6
ByLayer
10
3.03612117818
20
11.0225684209
30
0.0
11
2.94009943195
21
10.53025288
31
0.0
0
LINE
5
1026
100
AcDbEntity
100
AcDbLine
8
3
62
256
370
-1
6
ByLayer
10
2.94009943195
20
10.53025288
30
0.0
11
2.83966957448
21
10.0351795253
31
0.0
0
LINE
5
1027
100
AcDbEntity
100
AcDbLine
8
3
62
256
370
-1
6
ByLayer
10
2.83966957448
20
10.0351795253
30
0.0
11
2.73482541154
21
9.5374696416
31
0.0
0
LINE
5
1028
100
AcDbEntity
100
AcDbLine
8
3
62
256
370
-1
6
ByLayer
10
2.73482541154
20
9.5374696416
30
0.0
11
2.62556239339
21
9.03724503449
31
0.0
0
LINE
5
1029
100
AcDbEntity
100
AcDbLine
8
3
62
256
370
-1
6
ByLayer
10
2.62556239339
20
9.03724503449
30
0.0
11
2.51187761891
21
8.53462799653
31
0.0
0
LINE
5
1030
100
AcDbEntity
100
AcDbLine
8
3
62
256
370
-1
6
ByLayer
10
2.51187761891
20
8.53462799653
30
0.0
11
2.39376983936
21
8.02974127356
31
0.0
0
LINE
5
1031
100
AcDbEntity
100
AcDbLine
8
3
62
256
370
-1
6
ByLayer
10
2.39376983936
20
8.02974127356
30
0.0
11
2.27123946145
21
7.52270803073
31
0.0
0
LINE
5
1032
100
AcDbEntity
100
AcDbLine
8
3
62
256
370
-1
6
ByLayer
10
2.27123946145
20
7.52270803073
30
0.0
11
2.14428854998
21
7.01365181849
31
0.0
0
LINE
5
1033
100
AcDbEntity
100
AcDbLine
8
3
62
256
370
-1
6
ByLayer
10
2.14428854998
20
7.01365181849
30
0.0
11
2.01292082986
21
6.50269653851
31
0.0
0
LINE
5
1034
100
AcDbEntity
100
AcDbLine
8
3
62
256
370
-1
6
ByLayer
10
2.01292082986
20
6.50269653851
30
0.0
11
1.87714168764
21
5.9899664095
31
0.0
0
LINE
5
1035
100
AcDbEntity
100
AcDbLine
8
3
62
256
370
-1
6
ByLayer
10
1.87714168764
20
5.9899664095
30
0.0
11
1.73695817247
21
5.47558593297
31
0.0
0
LINE
5
1036
100
AcDbEntity
100
AcDbLine
8
3
62
256
370
-1
6
ByLayer
10
1.73695817247
20
5.47558593297
30
0.0
11
1.59237899655
21
4.95967985895
31
0.0
0
LINE
5
1037
100
AcDbEntity
100
AcDbLine
8
3
62
256
370
-1
6
ByLayer
10
1.59237899655
20
4.95967985895
30
0.0
11
1.44341453498
21
4.44237315162
31
0.0
0
LINE
5
1038
100
AcDbEntity
100
AcDbLine
8
3
62
256
370
-1
6
ByLayer
10
1.44341453498
20
4.44237315162
30
0.0
11
1.29007682512
21
3.92379095498
31
0.0
0
LINE
5
1039
100
AcDbEntity
100
AcDbLine
8
3
62
256
370
-1
6
ByLayer
10
1.29007682512
20
3.92379095498
30
0.0
11
1.13237956538
21
3.40405855839
31
0.0
0
LINE
5
1040
100
AcDbEntity
100
AcDbLine
8
3
62
256
370
-1
6
ByLayer
10
1.13237956538
20
3.40405855839
30
0.0
11
0.97033811349
21
2.88330136223
31
0.0
0
LINE
5
1041
100
AcDbEntity
100
AcDbLine
8
3
62
256
370
-1
6
ByLayer
10
0.97033811349
20
2.88330136223
30
0.0
11
0.803969484173
21
2.36164484341
31
0.0
0
LINE
5
1042
100
AcDbEntity
100
AcDbLine
8
3
62
256
370
-1
6
ByLayer
10
0.803969484173
20
2.36164484341
30
0.0
11
0.633292346339
21
1.83921452099
31
0.0
0
LINE
5
1043
100
AcDbEntity
100
AcDbLine
8
3
62
256
370
-1
6
ByLayer
10
0.633292346339
20
1.83921452099
30
0.0
11
0.458327019701
21
1.31613592178
31
0.0
0
LINE
5
1044
100
AcDbEntity
100
AcDbLine
8
3
62
256
370
-1
6
ByLayer
10
0.458327019701
20
1.31613592178
30
0.0
11
0.279095470851
21
0.792534545943
31
0.0
0
LINE
5
1045
100
AcDbEntity
100
AcDbLine
8
3
62
256
370
-1
6
ByLayer
10
0.279095470851
20
0.792534545943
30
0.0
11
0.0956213088083
21
0.268535832684
31
0.0
0
LINE
5
1046
100
AcDbEntity
100
AcDbLine
8
3
62
256
370
-1
6
ByLayer
10
0.0956213088083
20
0.268535832684
30
0.0
11
-0.0920702199861
21
-0.255734874075
31
0.0
0
LINE
5
1047
100
AcDbEntity
100
AcDbLine
8
3
62
256
370
-1
6
ByLayer
10
-0.0920702199861
20
-0.255734874075
30
0.0
11
-0.283952237204
21
-0.780152359921
31
0.0
0
LINE
5
1048
100
AcDbEntity
100
AcDbLine
8
3
62
256
370
-1
6
ByLayer
10
-0.283952237204
20
-0.780152359921
30
0.0
11
-0.479996238703
21
-1.30459157412
31
0.0
0
LINE
5
1049
100
AcDbEntity
100
AcDbLine
8
3
62
256
370
-1
6
ByLayer
10
-0.479996238703
20
-1.30459157412
30
0.0
11
-0.680172101142
21
-1.82892766375
31
0.0
0
LINE
5
1050
100
AcDbEntity
100
AcDbLine
8
3
62
256
370
-1
6
ByLayer
10
-0.680172101142
20
-1.82892766375
30
0.0
11
-0.884448089119
21
-2.35303600765
31
0.0
0
LINE
5
1051
100
AcDbEntity
100
AcDbLine
8
3
62
256
370
-1
6
ByLayer
10
-0.884448089119
20
-2.35303600765
30
0.0
11
-1.09279086285
21
-2.87679225041
31
0.0
0
LINE
5
1052
100
AcDbEntity
100
AcDbLine
8
3
62
256
370
-1
6
ByLayer
10
-1.09279086285
20
-2.87679225041
30
0.0
11
-1.30516548637
21
-3.40007233615
31
0.0
0
LINE
5
1053
100
AcDbEntity
100
AcDbLine
8
3
62
256
370
-1
6
ByLayer
10
-1.30516548637
20
-3.40007233615
30
0.0
11
-1.52153543626
21
-3.92275254222
31
0.0
0
LINE
5
1054
100
AcDbEntity
100
AcDbLine
8
3
62
256
370
-1
6
ByLayer
10
-1.52153543626
20
-3.92275254222
30
0.0
11
-1.74186261094
21
-4.44470951281
31
0.0
0
LINE
5
1055
100
AcDbEntity
100
AcDbLine
8
3
62
256
370
-1
6
ByLayer
10
-1.74186261094
20
-4.44470951281
30
0.0
11
-1.96610734039
21
-4.96582029233
31
0.0
0
LINE
5
1056
100
AcDbEntity
100
AcDbLine
8
3
62
256
370
-1
6
ByLayer
10
-1.96610734039
20
-4.96582029233
30
0.0
11
-2.19422839649
21
-5.48596235875
31
0.0
0
LINE
5
1057
100
AcDbEntity
100
AcDbLine
8
3
62
256
370
-1
6
ByLayer
10
-2.19422839649
20
-5.48596235875
30
0.0
11
-2.42618300382
21
-6.00501365675
31
0.0
0
LINE
5
1058
100
AcDbEntity
100
AcDbLine
8
3
62
256
370
-1
6
ByLayer
10
-2.42618300382
20
-6.00501365675
30
0.0
11
-2.66192685101
21
-6.52285263066
31
0.0
0
LINE
5
1059
100
AcDbEntity
100
AcDbLine
8
3
62
256
370
-1
6
ByLayer
10
-2.66192685101
20
-6.52285263066
30
0.0
11
-2.90141410255
21
-7.03935825731
31
0.0
0
LINE
5
1060
100
AcDbEntity
100
AcDbLine
8
3
62
256
370
-1
6
ByLayer
10
-2.90141410255
20
-7.03935825731
30
0.0
11
-3.14459741114
21
-7.55441007862
31
0.0
0
LINE
5
1061
100
AcDbEntity
100
AcDbLine
8
3
62
256
370
-1
6
ByLayer
10
-3.14459741114
20
-7.55441007862
30
0.0
11
-3.39142793056
21
-8.06788823405
31
0.0
0
LINE
5
1062
100
AcDbEntity
100
AcDbLine
8
3
62
256
370
-1
6
ByLayer
10
-3.39142793056
20
-8.06788823405
30
0.0
11
-3.641855329
21
-8.57967349282
31
0.0
0
LINE
5
1063
100
AcDbEntity
100
AcDbLine
8
3
62
256
370
-1
6
ByLayer
10
-3.641855329
20
-8.57967349282
30
0.0
11
-3.89582780293
21
-9.08964728593
31
0.0
0
LINE
5
1064
100
AcDbEntity
100
AcDbLine
8
3
62
256
370
-1
6
ByLayer
10
-3.89582780293
20
-9.08964728593
30
0.0
11
-4.1532920914
21
-9.59769173796
31
0.0
0
LINE
5
1065
100
AcDbEntity
100
AcDbLine
8
3
62
256
370
-1
6
ByLayer
10
-4.1532920914
20
-9.59769173796
30
0.0
11
-4.41419349087
21
-10.1036896986
31
0.0
0
LINE
5
1066
100
AcDbEntity
100
AcDbLine
8
3
62
256
370
-1
6
ByLayer
10
-4.41419349087
20
-10.1036896986
30
0.0
11
-4.67847587056
21
-10.6075247742
31
0.0
0
LINE
5
1067
100
AcDbEntity
100
AcDbLine
8
3
62
256
370
-1
6
ByLayer
10
-4.67847587056
20
-10.6075247742
30
0.0
11
-4.94608168817
21
-11.1090813584
31
0.0
0
LINE
5
1068
100
AcDbEntity
100
AcDbLine
8
3
62
256
370
-1
6
ByLayer
10
-4.94608168817
20
-11.1090813584
30
0.0
11
-5.2169520062
21
-11.6082446633
31
0.0
0
LINE
5
1069
100
AcDbEntity
100
AcDbLine
8
3
62
256
370
-1
6
ByLayer
10
-5.2169520062
20
-11.6082446633
30
0.0
11
-5.49102650865
21
-12.1049007502
31
0.0
0
LINE
5
1070
100
AcDbEntity
100
AcDbLine
8
3
62
256
370
-1
6
ByLayer
10
-5.49102650865
20
-12.1049007502
30
0.0
11
-5.76824351818
21
-12.5989365592
31
0.0
0
LINE
5
1071
100
AcDbEntity
100
AcDbLine
8
3
62
256
370
-1
6
ByLayer
10
-5.76824351818
20
-12.5989365592
30
0.0
11
-6.04854001383
21
-13.09023994
31
0.0
0
LINE
5
1072
100
AcDbEntity
100
AcDbLine
8
3
62
256
370
-1
6
ByLayer
10
-6.04854001383
20
-13.09023994
30
0.0
11
-6.33185164907
21
-13.5786996811
31
0.0
0
LINE
5
1073
100
AcDbEntity
100
AcDbLine
8
3
62
256
370
-1
6
ByLayer
10
-6.33185164907
20
-13.5786996811
30
0.0
11
-6.61811277039
21
-14.0642055392
31
0.0
0
LINE
5
1074
100
AcDbEntity
100
AcDbLine
8
3
62
256
370
-1
6
ByLayer
10
-6.61811277039
20
-14.0642055392
30
0.0
11
-6.90725643628
21
-14.5466482688
31
0.0
0
LINE
5
1075
100
AcDbEntity
100
AcDbLine
8
3
62
256
370
-1
6
ByLayer
10
-6.90725643628
20
-14.5466482688
30
0.0
11
-7.19921443665
21
-15.0259196503
31
0.0
0
LINE
5
1076
100
AcDbEntity
100
AcDbLine
8
3
62
256
370
-1
6
ByLayer
10
-7.19921443665
20
-15.0259196503
30
0.0
11
-7.49391731272
21
-15.5019125189
31
0.0
0
LINE
5
1077
100
AcDbEntity
100
AcDbLine
8
3
62
256
370
-1
6
ByLayer
10
-7.49391731272
20
-15.5019125189
30
0.0
11
-7.7912943773
21
-15.9745207927
31
0.0
0
LINE
5
1078
100
AcDbEntity
100
AcDbLine
8
3
62
256
370
-1
6
ByLayer
10
-7.7912943773
20
-15.9745207927
30
0.0
11
-8.09127373552
21
-16.4436395002
31
0.0
0
LINE
5
1079
100
AcDbEntity
100
AcDbLine
8
3
62
256
370
-1
6
ByLayer
10
-8.09127373552
20
-16.4436395002
30
0.0
11
-8.39378230591
21
-16.909164808
31
0.0
0
LINE
5
1080
100
AcDbEntity
100
AcDbLine
8
3
62
256
370
-1
6
ByLayer
10
-8.39378230591
20
-16.909164808
30
0.0
11
-8.69874584197
21
-17.370994048
31
0.0
0
LINE
5
1081
100
AcDbEntity
100
AcDbLine
8
3
62
256
370
-1
6
ByLayer
10
-8.69874584197
20
-17.370994048
30
0.0
11
-9.0060889541
21
-17.8290257436
31
0.0
0
LINE
5
1082
100
AcDbEntity
100
AcDbLine
8
3
62
256
370
-1
6
ByLayer
10
-9.0060889541
20
-17.8290257436
30
0.0
11
-9.3157351319
21
-18.2831596364
31
0.0
0
LINE
5
1083
100
AcDbEntity
100
AcDbLine
8
3
62
256
370
-1
6
ByLayer
10
-9.3157351319
20
-18.2831596364
30
0.0
11
-9.6276067669
21
-18.7332967121
31
0.0
0
LINE
5
1084
100
AcDbEntity
100
AcDbLine
8
3
62
256
370
-1
6
ByLayer
10
-9.6276067669
20
-18.7332967121
30
0.0
11
-9.94162517565
21
-19.1793392262
31
0.0
0
LINE
5
1085
100
AcDbEntity
100
AcDbLine
8
3
62
256
370
-1
6
ByLayer
10
-9.94162517565
20
-19.1793392262
30
0.0
11
-10.2577106232
21
-19.6211907288
31
0.0
0
LINE
5
1086
100
AcDbEntity
100
AcDbLine
8
3
62
256
370
-1
6
ByLayer
10
-10.2577106232
20
-19.6211907288
30
0.0
11
-10.5757823468
21
-20.0587560896
31
0.0
0
LINE
5
1087
100
AcDbEntity
100
AcDbLine
8
3
62
256
370
-1
6
ByLayer
10
-10.5757823468
20
-20.0587560896
30
0.0
11
-10.8957585805
21
-20.4919415224
31
0.0
0
LINE
5
1088
100
AcDbEntity
100
AcDbLine
8
3
62
256
370
-1
6
ByLayer
10
-10.8957585805
20
-20.4919415224
30
0.0
11
-11.2175565791
21
-20.9206546087
31
0.0
0
LINE
5
1089
100
AcDbEntity
100
AcDbLine
8
3
62
256
370
-1
6
ByLayer
10
-11.2175565791
20
-20.9206546087
30
0.0
11
-11.5410926434
21
-21.3448043214
31
0.0
0
LINE
5
1090
100
AcDbEntity
100
AcDbLine
8
3
62
256
370
-1
6
ByLayer
10
-11.5410926434
20
-21.3448043214
30
0.0
11
-11.8662821456
21
-21.764301048
31
0.0
0
LINE
5
1091
100
AcDbEntity
100
AcDbLine
8
3
62
256
370
-1
6
ByLayer
10
-11.8662821456
20
-21.764301048
30
0.0
11
-12.1930395542
21
-22.1790566129
31
0.0
0
LINE
5
1092
100
AcDbEntity
100
AcDbLine
8
3
62
256
370
-1
6
ByLayer
10
-12.1930395542
20
-22.1790566129
30
0.0
11
-12.5212784607
21
-22.5889843001
31
0.0
0
LINE
5
1093
100
AcDbEntity
100
AcDbLine
8
3
62
256
370
-1
6
ByLayer
10
-12.5212784607
20
-22.5889843001
30
0.0
11
-12.8509116051
21
-22.9939988745
31
0.0
0
LINE
5
1094
100
AcDbEntity
100
AcDbLine
8
3
62
256
370
-1
6
ByLayer
10
-12.8509116051
20
-22.9939988745
30
0.0
11
-13.1818509029
21
-23.3940166033
31
0.0
0
LINE
5
1095
100
AcDbEntity
100
AcDbLine
8
3
62
256
370
-1
6
ByLayer
10
-13.1818509029
20
-23.3940166033
30
0.0
11
-13.5140074714
21
-23.7889552771
31
0.0
0
LINE
5
1096
100
AcDbEntity
100
AcDbLine
8
3
62
256
370
-1
6
ByLayer
10
-13.5140074714
20
-23.7889552771
30
0.0
11
-13.8472916572
21
-24.1787342299
31
0.0
0
LINE
5
1097
100
AcDbEntity
100
AcDbLine
8
3
62
256
370
-1
6
ByLayer
10
-13.8472916572
20
-24.1787342299
30
0.0
11
-14.1816130636
21
-24.5632743594
31
0.0
0
LINE
5
1098
100
AcDbEntity
100
AcDbLine
8
3
62
256
370
-1
6
ByLayer
10
-14.1816130636
20
-24.5632743594
30
0.0
11
-14.5168805776
21
-24.9424981459
31
0.0
0
LINE
5
1099
100
AcDbEntity
100
AcDbLine
8
3
62
256
370
-1
6
ByLayer
10
-14.5168805776
20
-24.9424981459
30
0.0
11
-14.8530023986
21
-25.3163296717
31
0.0
0
LINE
5
1100
100
AcDbEntity
100
AcDbLine
8
3
62
256
370
-1
6
ByLayer
10
-14.8530023986
20
-25.3163296717
30
0.0
11
-15.189886066
21
-25.6846946395
31
0.0
0
LINE
5
1101
100
AcDbEntity
100
AcDbLine
8
3
62
256
370
-1
6
ByLayer
10
-15.189886066
20
-25.6846946395
30
0.0
11
-15.527438488
21
-26.0475203899
31
0.0
0
LINE
5
1102
100
AcDbEntity
100
AcDbLine
8
3
62
256
370
-1
6
ByLayer
10
-15.527438488
20
-26.0475203899
30
0.0
11
-15.8655659698
21
-26.4047359194
31
0.0
0
LINE
5
1103
100
AcDbEntity
100
AcDbLine
8
3
62
256
370
-1
6
ByLayer
10
-15.8655659698
20
-26.4047359194
30
0.0
11
-16.2041742429
21
-26.756271897
31
0.0
0
LINE
5
1104
100
AcDbEntity
100
AcDbLine
8
3
62
256
370
-1
6
ByLayer
10
-16.2041742429
20
-26.756271897
30
0.0
11
-16.5431684939
21
-27.1020606809
31
0.0
0
LINE
5
1105
100
AcDbEntity
100
AcDbLine
8
3
62
256
370
-1
6
ByLayer
10
-16.5431684939
20
-27.1020606809
30
0.0
11
-16.882453394
21
-27.4420363339
31
0.0
0
LINE
5
1106
100
AcDbEntity
100
AcDbLine
8
3
62
256
370
-1
6
ByLayer
10
-16.882453394
20
-27.4420363339
30
0.0
11
-17.2219331283
21
-27.7761346396
31
0.0
0
LINE
5
1107
100
AcDbEntity
100
AcDbLine
8
3
62
256
370
-1
6
ByLayer
10
-17.2219331283
20
-27.7761346396
30
0.0
11
-17.5615114257
21
-28.1042931167
31
0.0
0
LINE
5
1108
100
AcDbEntity
100
AcDbLine
8
3
62
256
370
-1
6
ByLayer
10
-17.5615114257
20
-28.1042931167
30
0.0
11
-17.9010915886
21
-28.4264510333
31
0.0
0
LINE
5
1109
100
AcDbEntity
100
AcDbLine
8
3
62
256
370
-1
6
ByLayer
10
-17.9010915886
20
-28.4264510333
30
0.0
11
-18.2405765233
21
-28.7425494212
31
0.0
0
LINE
5
1110
100
AcDbEntity
100
AcDbLine
8
3
62
256
370
-1
6
ByLayer
10
-18.2405765233
20
-28.7425494212
30
0.0
11
-18.5798687697
21
-29.0525310888
31
0.0
0
LINE
5
1111
100
AcDbEntity
100
AcDbLine
8
3
62
256
370
-1
6
ByLayer
10
-18.5798687697
20
-29.0525310888
30
0.0
11
-18.9188705322
21
-29.3563406339
31
0.0
0
LINE
5
1112
100
AcDbEntity
100
AcDbLine
8
3
62
256
370
-1
6
ByLayer
10
-18.9188705322
20
-29.3563406339
30
0.0
11
-19.25748371
21
-29.6539244562
31
0.0
0
LINE
5
1113
100
AcDbEntity
100
AcDbLine
8
3
62
256
370
-1
6
ByLayer
10
-19.25748371
20
-29.6539244562
30
0.0
11
-19.5956099275
21
-29.9452307685
31
0.0
0
LINE
5
1114
100
AcDbEntity
100
AcDbLine
8
3
62
256
370
-1
6
ByLayer
10
-19.5956099275
20
-29.9452307685
30
0.0
11
-19.9331505659
21
-30.2302096082
31
0.0
0
LINE
5
1115
100
AcDbEntity
100
AcDbLine
8
3
62
256
370
-1
6
ByLayer
10
-19.9331505659
20
-30.2302096082
30
0.0
11
-20.2700067931
21
-30.5088128477
31
0.0
0
LINE
5
1116
100
AcDbEntity
100
AcDbLine
8
3
62
256
370
-1
6
ByLayer
10
-20.2700067931
20
-30.5088128477
30
0.0
11
-20.6060795957
21
-30.7809942044
31
0.0
0
LINE
5
1117
100
AcDbEntity
100
AcDbLine
8
3
62
256
370
-1
6
ByLayer
10
-20.6060795957
20
-30.7809942044
30
0.0
11
-20.9412698094
21
-31.0467092505
31
0.0
0
LINE
5
1118
100
AcDbEntity
100
AcDbLine
8
3
62
256
370
-1
6
ByLayer
10
-20.9412698094
20
-31.0467092505
30
0.0
11
-21.2754781505
21
-31.3059154212
31
0.0
0
LINE
5
1119
100
AcDbEntity
100
AcDbLine
8
3
62
256
370
-1
6
ByLayer
10
-21.2754781505
20
-31.3059154212
30
0.0
11
-21.6086052474
21
-31.5585720237
31
0.0
0
LINE
5
1120
100
AcDbEntity
100
AcDbLine
8
3
62
256
370
-1
6
ByLayer
10
-21.6086052474
20
-31.5585720237
30
0.0
11
-21.9405516717
21
-31.8046402448
31
0.0
0
LINE
5
1121
100
AcDbEntity
100
AcDbLine
8
3
62
256
370
-1
6
ByLayer
10
-21.9405516717
20
-31.8046402448
30
0.0
11
-22.2712179697
21
-32.044083158
31
0.0
0
LINE
5
1122
100
AcDbEntity
100
AcDbLine
8
3
62
256
370
-1
6
ByLayer
10
-22.2712179697
20
-32.044083158
30
0.0
11
-22.600504694
21
-32.2768657301
31
0.0
0
LINE
5
1123
100
AcDbEntity
100
AcDbLine
8
3
62
256
370
-1
6
ByLayer
10
-22.600504694
20
-32.2768657301
30
0.0
11
-22.9283124349
21
-32.5029548275
31
0.0
0
LINE
5
1124
100
AcDbEntity
100
AcDbLine
8
3
62
256
370
-1
6
ByLayer
10
-22.9283124349
20
-32.5029548275
30
0.0
11
-23.254541852
21
-32.7223192217
31
0.0
0
LINE
5
1125
100
AcDbEntity
100
AcDbLine
8
3
62
256
370
-1
6
ByLayer
10
-23.254541852
20
-32.7223192217
30
0.0
11
-23.5790937061
21
-32.934929594
31
0.0
0
LINE
5
1126
100
AcDbEntity
100
AcDbLine
8
3
62
256
370
-1
6
ByLayer
10
-23.5790937061
20
-32.934929594
30
0.0
11
-23.9018688901
21
-33.1407585401
31
0.0
0
LINE
5
1127
100
AcDbEntity
100
AcDbLine
8
3
62
256
370
-1
6
ByLayer
10
-23.9018688901
20
-33.1407585401
30
0.0
11
-24.2227684613
21
-33.3397805739
31
0.0
0
LINE
5
1128
100
AcDbEntity
100
AcDbLine
8
3
62
256
370
-1
6
ByLayer
10
-24.2227684613
20
-33.3397805739
30
0.0
11
-24.5416936729
21
-33.5319721306
31
0.0
0
LINE
5
1129
100
AcDbEntity
100
AcDbLine
8
3
62
256
370
-1
6
ByLayer
10
-24.5416936729
20
-33.5319721306
30
0.0
11
-24.8585460051
21
-33.7173115694
31
0.0
0
LINE
5
1130
100
AcDbEntity
100
AcDbLine
8
3
62
256
370
-1
6
ByLayer
10
-24.8585460051
20
-33.7173115694
30
0.0
11
-25.1732271972
21
-33.8957791757
31
0.0
0
LINE
5
1131
100
AcDbEntity
100
AcDbLine
8
3
62
256
370
-1
6
ByLayer
10
-25.1732271972
20
-33.8957791757
30
0.0
11
-25.4856392789
21
-34.0673571624
31
0.0
0
LINE
5
1132
100
AcDbEntity
100
AcDbLine
8
3
62
256
370
-1
6
ByLayer
10
-25.4856392789
20
-34.0673571624
30
0.0
11
-25.7956846018
21
-34.232029671
31
0.0
0
LINE
5
1133
100
AcDbEntity
100
AcDbLine
8
3
62
256
370
-1
6
ByLayer
10
-25.7956846018
20
-34.232029671
30
0.0
11
-26.1032658709
21
-34.3897827721
31
0.0
0
LINE
5
1134
100
AcDbEntity
100
AcDbLine
8
3
62
256
370
-1
6
ByLayer
10
-26.1032658709
20
-34.3897827721
30
0.0
11
-26.4082861757
21
-34.5406044647
31
0.0
0
LINE
5
1135
100
AcDbEntity
100
AcDbLine
8
3
62
256
370
-1
6
ByLayer
10
-26.4082861757
20
-34.5406044647
30
0.0
11
-26.710649022
21
-34.6844846759
31
0.0
0
LINE
5
1136
100
AcDbEntity
100
AcDbLine
8
3
62
256
370
-1
6
ByLayer
10
-26.710649022
20
-34.6844846759
30
0.0
11
-27.0102583625
21
-34.8214152594
31
0.0
0
LINE
5
1137
100
AcDbEntity
100
AcDbLine
8
3
62
256
370
-1
6
ByLayer
10
-27.0102583625
20
-34.8214152594
30
0.0
11
-27.3070186284
21
-34.9513899935
31
0.0
0
LINE
5
1138
100
AcDbEntity
100
AcDbLine
8
3
62
256
370
-1
6
ByLayer
10
-27.3070186284
20
-34.9513899935
30
0.0
11
-27.6008347601
21
-35.0744045787
31
0.0
0
LINE
5
1139
100
AcDbEntity
100
AcDbLine
8
3
62
256
370
-1
6
ByLayer
10
-27.6008347601
20
-35.0744045787
30
0.0
11
-27.8916122383
21
-35.1904566344
31
0.0
0
LINE
5
1140
100
AcDbEntity
100
AcDbLine
8
3
62
256
370
-1
6
ByLayer
10
-27.8916122383
20
-35.1904566344
30
0.0
11
-28.1792571147
21
-35.2995456958
31
0.0
0
LINE
5
1141
100
AcDbEntity
100
AcDbLine
8
3
62
256
370
-1
6
ByLayer
10
-28.1792571147
20
-35.2995456958
30
0.0
11
-28.4636760425
21
-35.401673209
31
0.0
0
LINE
5
1142
100
AcDbEntity
100
AcDbLine
8
3
62
256
370
-1
6
ByLayer
10
-28.4636760425
20
-35.401673209
30
0.0
11
-28.744776307
21
-35.4968425268
31
0.0
0
LINE
5
1143
100
AcDbEntity
100
AcDbLine
8
3
62
256
370
-1
6
ByLayer
10
-28.744776307
20
-35.4968425268
30
0.0
11
-29.0224658562
21
-35.5850589032
31
0.0
0
LINE
5
1144
100
AcDbEntity
100
AcDbLine
8
3
62
256
370
-1
6
ByLayer
10
-29.0224658562
20
-35.5850589032
30
0.0
11
-29.2966533305
21
-35.6663294874
31
0.0
0
LINE
5
1145
100
AcDbEntity
100
AcDbLine
8
3
62
256
370
-1
6
ByLayer
10
-29.2966533305
20
-35.6663294874
30
0.0
11
-29.567248093
21
-35.7406633175
31
0.0
0
LINE
5
1146
100
AcDbEntity
100
AcDbLine
8
3
62
256
370
-1
6
ByLayer
10
-29.567248093
20
-35.7406633175
30
0.0
11
-29.8341602595
21
-35.8080713135
31
0.0
0
LINE
5
1147
100
AcDbEntity
100
AcDbLine
8
3
62
256
370
-1
6
ByLayer
10
-29.8341602595
20
-35.8080713135
30
0.0
11
-30.0973007276
21
-35.8685662695
31
0.0
0
LINE
5
1148
100
AcDbEntity
100
AcDbLine
8
3
62
256
370
-1
6
ByLayer
10
-30.0973007276
20
-35.8685662695
30
0.0
11
-30.3565812069
21
-35.9221628462
31
0.0
0
LINE
5
1149
100
AcDbEntity
100
AcDbLine
8
3
62
256
370
-1
6
ByLayer
10
-30.3565812069
20
-35.9221628462
30
0.0
11
-30.6119142475
21
-35.9688775615
31
0.0
0
LINE
5
1150
100
AcDbEntity
100
AcDbLine
8
3
62
256
370
-1
6
ByLayer
10
-30.6119142475
20
-35.9688775615
30
0.0
11
-30.8632132695
21
-36.0087287818
31
0.0
0
LINE
5
1151
100
AcDbEntity
100
AcDbLine
8
3
62
256
370
-1
6
ByLayer
10
-30.8632132695
20
-36.0087287818
30
0.0
11
-31.1103925917
21
-36.0417367122
31
0.0
0
LINE
5
1152
100
AcDbEntity
100
AcDbLine
8
3
62
256
370
-1
6
ByLayer
10
-31.1103925917
20
-36.0417367122
30
0.0
11
-31.35336746
21
-36.067923386
31
0.0
0
LINE
5
1153
100
AcDbEntity
100
AcDbLine
8
3
62
256
370
-1
6
ByLayer
10
-31.35336746
20
-36.067923386
30
0.0
11
-31.5920540759
21
-36.0873126542
31
0.0
0
LINE
5
1154
100
AcDbEntity
100
AcDbLine
8
3
62
256
370
-1
6
ByLayer
10
-31.5920540759
20
-36.0873126542
30
0.0
11
-31.8263696244
21
-36.099930174
31
0.0
0
LINE
5
1155
100
AcDbEntity
100
AcDbLine
8
3
62
256
370
-1
6
ByLayer
10
-31.8263696244
20
-36.099930174
30
0.0
11
-32.0562323022
21
-36.105803397
31
0.0
0
LINE
5
1156
100
AcDbEntity
100
AcDbLine
8
3
62
256
370
-1
6
ByLayer
10
-32.0562323022
20
-36.105803397
30
0.0
11
-32.2815613446
21
-36.1049615568
31
0.0
0
LINE
5
1157
100
AcDbEntity
100
AcDbLine
8
3
62
256
370
-1
6
ByLayer
10
-32.2815613446
20
-36.1049615568
30
0.0
11
-32.5022770534
21
-36.0974356559
31
0.0
0
LINE
5
1158
100
AcDbEntity
100
AcDbLine
8
3
62
256
370
-1
6
ByLayer
10
-32.5022770534
20
-36.0974356559
30
0.0
11
-32.7183008232
21
-36.0832584527
31
0.0
0
LINE
5
1159
100
AcDbEntity
100
AcDbLine
8
3
62
256
370
-1
6
ByLayer
10
-32.7183008232
20
-36.0832584527
30
0.0
11
-32.9295551689
21
-36.0624644472
31
0.0
0
LINE
5
1160
100
AcDbEntity
100
AcDbLine
8
3
62
256
370
-1
6
ByLayer
10
-32.9295551689
20
-36.0624644472
30
0.0
11
-33.1359637512
21
-36.0350898668
31
0.0
0
LINE
5
1161
100
AcDbEntity
100
AcDbLine
8
3
62
256
370
-1
6
ByLayer
10
-33.1359637512
20
-36.0350898668
30
0.0
11
-33.3374514034
21
-36.0011726512
31
0.0
0
LINE
5
1162
100
AcDbEntity
100
AcDbLine
8
3
62
256
370
-1
6
ByLayer
10
-33.3374514034
20
-36.0011726512
30
0.0
11
-33.5339441564
21
-35.9607524371
31
0.0
0
LINE
5
1163
100
AcDbEntity
100
AcDbLine
8
3
62
256
370
-1
6
ByLayer
10
-33.5339441564
20
-35.9607524371
30
0.0
11
-33.725369265
21
-35.9138705422
31
0.0
0
LINE
5
1164
100
AcDbEntity
100
AcDbLine
8
3
62
256
370
-1
6
ByLayer
10
-33.725369265
20
-35.9138705422
30
0.0
11
-33.911655232
21
-35.8605699489
31
0.0
0
LINE
5
1165
100
AcDbEntity
100
AcDbLine
8
3
62
256
370
-1
6
ByLayer
10
-33.911655232
20
-35.8605699489
30
0.0
11
-34.0927318336
21
-35.8008952874
31
0.0
0
LINE
5
1166
100
AcDbEntity
100
AcDbLine
8
3
62
256
370
-1
6
ByLayer
10
-34.0927318336
20
-35.8008952874
30
0.0
11
-34.2685301437
21
-35.7348928182
31
0.0
0
LINE
5
1167
100
AcDbEntity
100
AcDbLine
8
3
62
256
370
-1
6
ByLayer
10
-34.2685301437
20
-35.7348928182
30
0.0
11
-34.4389825576
21
-35.6626104145
31
0.0
0
LINE
5
1168
100
AcDbEntity
100
AcDbLine
8
3
62
256
370
-1
6
ByLayer
10
-34.4389825576
20
-35.6626104145
30
0.0
11
-34.6040228157
21
-35.5840975435
31
0.0
0
LINE
5
1169
100
AcDbEntity
100
AcDbLine
8
3
62
256
370
-1
6
ByLayer
10
-34.6040228157
20
-35.5840975435
30
0.0
11
-34.7635860271
21
-35.4994052485
31
0.0
0
LINE
5
1170
100
AcDbEntity
100
AcDbLine
8
3
62
256
370
-1
6
ByLayer
10
-34.7635860271
20
-35.4994052485
30
0.0
11
-34.9176086921
21
-35.4085861287
31
0.0
0
LINE
5
1171
100
AcDbEntity
100
AcDbLine
8
3
62
256
370
-1
6
ByLayer
10
-34.9176086921
20
-35.4085861287
30
0.0
11
-35.0660287249
21
-35.3116943202
31
0.0
0
LINE
5
1172
100
AcDbEntity
100
AcDbLine
8
3
62
256
370
-1
6
ByLayer
10
-35.0660287249
20
-35.3116943202
30
0.0
11
-35.2087854757
21
-35.2087854757
31
0.0
0
LINE
5
1173
100
AcDbEntity
100
AcDbLine
8
3
62
256
370
-1
6
ByLayer
10
-35.2087854757
20
-35.2087854757
30
0.0
11
-35.3458197522
21
-35.0999167443
31
0.0
0
LINE
5
1174
100
AcDbEntity
100
AcDbLine
8
3
62
256
370
-1
6
ByLayer
10
-35.3458197522
20
-35.0999167443
30
0.0
11
-35.477073841
21
-34.98514675
31
0.0
0
LINE
5
1175
100
AcDbEntity
100
AcDbLine
8
3
62
256
370
-1
6
ByLayer
10
-35.477073841
20
-34.98514675
30
0.0
11
-35.6024915286
21
-34.8645355709
31
0.0
0
LINE
5
1176
100
AcDbEntity
100
AcDbLine
8
3
62
256
370
-1
6
ByLayer
10
-35.6024915286
20
-34.8645355709
30
0.0
11
-35.7220181213
21
-34.738144717
31
0.0
0
LINE
5
1177
100
AcDbEntity
100
AcDbLine
8
3
62
256
370
-1
6
ByLayer
10
-35.7220181213
20
-34.738144717
30
0.0
11
-35.8356004661
21
-34.6060371086
31
0.0
0
LINE
5
1178
100
AcDbEntity
100
AcDbLine
8
3
62
256
370
-1
6
ByLayer
10
-35.8356004661
20
-34.6060371086
30
0.0
11
-35.9431869693
21
-34.4682770531
31
0.0
0
LINE
5
1179
100
AcDbEntity
100
AcDbLine
8
3
62
256
370
-1
6
ByLayer
10
-35.9431869693
20
-34.4682770531
30
0.0
11
-36.0447276163
21
-34.3249302223
31
0.0
0
LINE
5
1180
100
AcDbEntity
100
AcDbLine
8
3
62
256
370
-1
6
ByLayer
10
-36.0447276163
20
-34.3249302223
30
0.0
11
-36.1401739898
21
-34.1760636295
31
0.0
0
LINE
5
1181
100
AcDbEntity
100
AcDbLine
8
3
62
256
370
-1
6
ByLayer
10
-36.1401739898
20
-34.1760636295
30
0.0
11
-36.2294792884
21
-34.021745605
31
0.0
0
LINE
5
1182
100
AcDbEntity
100
AcDbLine
8
3
62
256
370
-1
6
ByLayer
10
-36.2294792884
20
-34.021745605
30
0.0
11
-36.312598344
21
-33.8620457727
31
0.0
0
LINE
5
1183
100
AcDbEntity
100
AcDbLine
8
3
62
256
370
-1
6
ByLayer
10
-36.312598344
20
-33.8620457727
30
0.0
11
-36.3894876394
21
-33.6970350251
31
0.0
0
LINE
5
1184
100
AcDbEntity
100
AcDbLine
8
3
62
256
370
-1
6
ByLayer
10
-36.3894876394
20
-33.6970350251
30
0.0
11
-36.4601053248
21
-33.5267854992
31
0.0
0
LINE
5
1185
100
AcDbEntity
100
AcDbLine
8
3
62
256
370
-1
6
ByLayer
10
-36.4601053248
20
-33.5267854992
30
0.0
11
-36.5244112342
21
-33.3513705506
31
0.0
0
LINE
5
1186
100
AcDbEntity
100
AcDbLine
8
3
62
256
370
-1
6
ByLayer
10
-36.5244112342
20
-33.3513705506
30
0.0
11
-36.5823669013
21
-33.1708647286
31
0.0
0
LINE
5
1187
100
AcDbEntity
100
AcDbLine
8
3
62
256
370
-1
6
ByLayer
10
-36.5823669013
20
-33.1708647286
30
0.0
11
-36.6339355749
21
-32.9853437502
31
0.0
0
LINE
5
1188
100
AcDbEntity
100
AcDbLine
8
3
62
256
370
-1
6
ByLayer
10
-36.6339355749
20
-32.9853437502
30
0.0
11
-36.6790822337
21
-32.794884474
31
0.0
0
LINE
5
1189
100
AcDbEntity
100
AcDbLine
8
3
62
256
370
-1
6
ByLayer
10
-36.6790822337
20
-32.794884474
30
0.0
11
-36.7177736004
21
-32.5995648736
31
0.0
0
LINE
5
1190
100
AcDbEntity
100
AcDbLine
8
3
62
256
370
-1
6
ByLayer
10
-36.7177736004
20
-32.5995648736
30
0.0
11
-36.7499781559
21
-32.3994640112
31
0.0
0
LINE
5
1191
100
AcDbEntity
100
AcDbLine
8
3
62
256
370
-1
6
ByLayer
10
-36.7499781559
20
-32.3994640112
30
0.0
11
-36.7756661523
21
-32.1946620103
31
0.0
0
LINE
5
1192
100
AcDbEntity
100
AcDbLine
8
3
62
256
370
-1
6
ByLayer
10
-36.7756661523
20
-32.1946620103
30
0.0
11
-36.7948096262
21
-31.9852400286
31
0.0
0
LINE
5
1193
100
AcDbEntity
100
AcDbLine
8
3
62
256
370
-1
6
ByLayer
10
-36.7948096262
20
-31.9852400286
30
0.0
11
-36.8073824104
21
-31.7712802301
31
0.0
0
LINE
5
1194
100
AcDbEntity
100
AcDbLine
8
3
62
256
370
-1
6
ByLayer
10
-36.8073824104
20
-31.7712802301
30
0.0
11
-36.8133601461
21
-31.5528657577
31
0.0
0
LINE
5
1195
100
AcDbEntity
100
AcDbLine
8
3
62
256
370
-1
6
ByLayer
10
-36.8133601461
20
-31.5528657577
30
0.0
11
-36.8127202938
21
-31.3300807045
31
0.0
0
LINE
5
1196
100
AcDbEntity
100
AcDbLine
8
3
62
256
370
-1
6
ByLayer
10
-36.8127202938
20
-31.3300807045
30
0.0
11
-36.8054421444
21
-31.1030100859
31
0.0
0
LINE
5
1197
100
AcDbEntity
100
AcDbLine
8
3
62
256
370
-1
6
ByLayer
10
-36.8054421444
20
-31.1030100859
30
0.0
11
-36.7915068292
21
-30.8717398108
31
0.0
0
LINE
5
1198
100
AcDbEntity
100
AcDbLine
8
3
62
256
370
-1
6
ByLayer
10
-36.7915068292
20
-30.8717398108
30
0.0
11
-36.7708973294
21
-30.6363566528
31
0.0
0
LINE
5
1199
100
AcDbEntity
100
AcDbLine
8
3
62
256
370
-1
6
ByLayer
10
-36.7708973294
20
-30.6363566528
30
0.0
11
-36.7435984854
21
-30.396948221
31
0.0
0
LINE
5
1200
100
AcDbEntity
100
AcDbLine
8
3
62
256
370
-1
6
ByLayer
10
-36.7435984854
20
-30.396948221
30
0.0
11
-36.7095970052
21
-30.1536029308
31
0.0
0
LINE
5
1201
100
AcDbEntity
100
AcDbLine
8
3
62
256
370
-1
6
ByLayer
10
-36.7095970052
20
-30.1536029308
30
0.0
11
-36.6688814726
21
-29.9064099745
31
0.0
0
LINE
5
1202
100
AcDbEntity
100
AcDbLine
8
3
62
256
370
-1
6
ByLayer
10
-36.6688814726
20
-29.9064099745
30
0.0
11
-36.6214423545
21
-29.6554592912
31
0.0
0
LINE
5
1203
100
AcDbEntity
100
AcDbLine
8
3
62
256
370
-1
6
ByLayer
10
-36.6214423545
20
-29.6554592912
30
0.0
11
-36.5672720078
21
-29.4008415377
31
0.0
0
LINE
5
1204
100
AcDbEntity
100
AcDbLine
8
3
62
256
370
-1
6
ByLayer
10
-36.5672720078
20
-29.4008415377
30
0.0
11
-36.5063646858
21
-29.1426480576
31
0.0
0
LINE
5
1205
100
AcDbEntity
100
AcDbLine
8
3
62
256
370
-1
6
ByLayer
10
-36.5063646858
20
-29.1426480576
30
0.0
11
-36.4387165439
21
-28.8809708514
31
0.0
0
LINE
5
1206
100
AcDbEntity
100
AcDbLine
8
3
62
256
370
-1
6
ByLayer
10
-36.4387165439
20
-28.8809708514
30
0.0
11
-36.3643256451
21
-28.6159025463
31
0.0
0
LINE
5
1207
100
AcDbEntity
100
AcDbLine
8
3
62
256
370
-1
6
ByLayer
10
-36.3643256451
20
-28.6159025463
30
0.0
11
-36.2831919642
21
-28.3475363654
31
0.0
0
LINE
5
1208
100
AcDbEntity
100
AcDbLine
8
3
62
256
370
-1
6
ByLayer
10
-36.2831919642
20
-28.3475363654
30
0.0
11
-36.1953173924
21
-28.0759660972
31
0.0
0
LINE
5
1209
100
AcDbEntity
100
AcDbLine
8
3
62
256
370
-1
6
ByLayer
10
-36.1953173924
20
-28.0759660972
30
0.0
11
-36.1007057403
21
-27.8012860645
31
0.0
0
LINE
5
1210
100
AcDbEntity
100
AcDbLine
8
3
62
256
370
-1
6
ByLayer
10
-36.1007057403
20
-27.8012860645
30
0.0
11
-35.9993627415
21
-27.5235910939
31
0.0
0
LINE
5
1211
100
AcDbEntity
100
AcDbLine
8
3
62
256
370
-1
6
ByLayer
10
-35.9993627415
20
-27.5235910939
30
0.0
11
-35.8912960543
21
-27.2429764842
31
0.0
0
LINE
5
1212
100
AcDbEntity
100
AcDbLine
8
3
62
256
370
-1
6
ByLayer
10
-35.8912960543
20
-27.2429764842
30
0.0
11
-35.776515264
21
-26.9595379757
31
0.0
0
LINE
5
1213
100
AcDbEntity
100
AcDbLine
8
3
62
256
370
-1
6
ByLayer
10
-35.776515264
20
-26.9595379757
30
0.0
11
-35.6550318841
21
-26.673371719
31
0.0
0
LINE
5
1214
100
AcDbEntity
100
AcDbLine
8
3
62
256
370
-1
6
ByLayer
10
-35.6550318841
20
-26.673371719
30
0.0
11
-35.5268593569
21
-26.3845742433
31
0.0
0
LINE
5
1215
100
AcDbEntity
100
AcDbLine
8
3
62
256
370
-1
6
ByLayer
10
-35.5268593569
20
-26.3845742433
30
0.0
11
-35.3920130533
21
-26.093242425
31
0.0
0
LINE
5
1216
100
AcDbEntity
100
AcDbLine
8
3
62
256
370
-1
6
ByLayer
10
-35.3920130533
20
-26.093242425
30
0.0
11
-35.2505102731
21
-25.7994734567
31
0.0
0
LINE
5
1217
100
AcDbEntity
100
AcDbLine
8
3
62
256
370
-1
6
ByLayer
10
-35.2505102731
20
-25.7994734567
30
0.0
11
-35.1023702431
21
-25.5033648154
31
0.0
0
LINE
5
1218
100
AcDbEntity
100
AcDbLine
8
3
62
256
370
-1
6
ByLayer
10
-35.1023702431
20
-25.5033648154
30
0.0
11
-34.9476141161
21
-25.2050142308
31
0.0
0
LINE
5
1219
100
AcDbEntity
100
AcDbLine
8
3
62
256
370
-1
6
ByLayer
10
-34.9476141161
20
-25.2050142308
30
0.0
11
-34.7862649684
21
-24.9045196539
31
0.0
0
LINE
5
1220
100
AcDbEntity
100
AcDbLine
8
3
62
256
370
-1
6
ByLayer
10
-34.7862649684
20
-24.9045196539
30
0.0
11
-34.6183477971
21
-24.6019792253
31
0.0
0
LINE
5
1221
100
AcDbEntity
100
AcDbLine
8
3
62
256
370
-1
6
ByLayer
10
-34.6183477971
20
-24.6019792253
30
0.0
11
-34.4438895168
21
-24.2974912436
31
0.0
0
LINE
5
1222
100
AcDbEntity
100
AcDbLine
8
3
62
256
370
-1
6
ByLayer
10
-34.4438895168
20
-24.2974912436
30
0.0
11
-34.2629189557
21
-23.9911541339
31
0.0
0
LINE
5
1223
100
AcDbEntity
100
AcDbLine
8
3
62
256
370
-1
6
ByLayer
10
-34.2629189557
20
-23.9911541339
30
0.0
11
-34.0754668512
21
-23.6830664157
31
0.0
0
LINE
5
1224
100
AcDbEntity
100
AcDbLine
8
3
62
256
370
-1
6
ByLayer
10
-34.0754668512
20
-23.6830664157
30
0.0
11
-33.8815658444
21
-23.373326672
31
0.0
0
LINE
5
1225
100
AcDbEntity
100
AcDbLine
8
3
62
256
370
-1
6
ByLayer
10
-33.8815658444
20
-23.373326672
30
0.0
11
-33.6812504752
21
-23.062033517
31
0.0
0
LINE
5
1226
100
AcDbEntity
100
AcDbLine
8
3
62
256
370
-1
6
ByLayer
10
-33.6812504752
20
-23.062033517
30
0.0
11
-33.4745571754
21
-22.7492855648
31
0.0
0
LINE
5
1227
100
AcDbEntity
100
AcDbLine
8
3
62
256
370
-1
6
ByLayer
10
-33.4745571754
20
-22.7492855648
30
0.0
11
-33.2615242625
21
-22.4351813982
31
0.0
0
LINE
5
1228
100
AcDbEntity
100
AcDbLine
8
3
62
256
370
-1
6
ByLayer
10
-33.2615242625
20
-22.4351813982
30
0.0
11
-33.0421919319
21
-22.1198195368
31
0.0
0
LINE
5
1229
100
AcDbEntity
100
AcDbLine
8
3
62
256
370
-1
6
ByLayer
10
-33.0421919319
20
-22.1198195368
30
0.0
11
-32.8166022494
21
-21.8032984058
31
0.0
0
LINE
5
1230
100
AcDbEntity
100
AcDbLine
8
3
62
256
370
-1
6
ByLayer
10
-32.8166022494
20
-21.8032984058
30
0.0
11
-32.5847991425
21
-21.4857163045
31
0.0
0
LINE
5
1231
100
AcDbEntity
100
AcDbLine
8
3
62
256
370
-1
6
ByLayer
10
-32.5847991425
20
-21.4857163045
30
0.0
11
-32.3468283914
21
-21.1671713753
31
0.0
0
LINE
5
1232
100
AcDbEntity
100
AcDbLine
8
3
62
256
370
-1
6
ByLayer
10
-32.3468283914
20
-21.1671713753
30
0.0
11
-32.1027376196
21
-20.8477615726
31
0.0
0
LINE
5
1233
100
AcDbEntity
100
AcDbLine
8
3
62
256
370
-1
6
ByLayer
10
-32.1027376196
20
-20.8477615726
30
0.0
11
-31.8525762835
21
-20.5275846312
31
0.0
0
LINE
5
1234
100
AcDbEntity
100
AcDbLine
8
3
62
256
370
-1
6
ByLayer
10
-31.8525762835
20
-20.5275846312
30
0.0
11
-31.596395662
21
-20.2067380361
31
0.0
0
LINE
5
1235
100
AcDbEntity
100
AcDbLine
8
3
62
256
370
-1
6
ByLayer
10
-31.596395662
20
-20.2067380361
30
0.0
11
-31.3342488451
21
-19.8853189912
31
0.0
0
LINE
5
1236
100
AcDbEntity
100
AcDbLine
8
3
62
256
370
-1
6
ByLayer
10
-31.3342488451
20
-19.8853189912
30
0.0
11
-31.0661907221
21
-19.5634243886
31
0.0
0
LINE
5
1237
100
AcDbEntity
100
AcDbLine
8
3
62
256
370
-1
6
ByLayer
10
-31.0661907221
20
-19.5634243886
30
0.0
11
-30.7922779692
21
-19.2411507784
31
0.0
0
LINE
5
1238
100
AcDbEntity
100
AcDbLine
8
3
62
256
370
-1
6
ByLayer
10
-30.7922779692
20
-19.2411507784
30
0.0
11
-30.5125690371
21
-18.9185943382
31
0.0
0
LINE
5
1239
100
AcDbEntity
100
AcDbLine
8
3
62
256
370
-1
6
ByLayer
10
-30.5125690371
20
-18.9185943382
30
0.0
11
-30.2271241368
21
-18.5958508423
31
0.0
0
LINE
5
1240
100
AcDbEntity
100
AcDbLine
8
3
62
256
370
-1
6
ByLayer
10
-30.2271241368
20
-18.5958508423
30
0.0
11
-29.9360052264
21
-18.2730156326
31
0.0
0
LINE
5
1241
100
AcDbEntity
100
AcDbLine
8
3
62
256
370
-1
6
ByLayer
10
-29.9360052264
20
-18.2730156326
30
0.0
11
-29.6392759963
21
-17.9501835878
31
0.0
0
LINE
5
1242
100
AcDbEntity
100
AcDbLine
8
3
62
256
370
-1
6
ByLayer
10
-29.6392759963
20
-17.9501835878
30
0.0
11
-29.337001854
21
-17.6274490944
31
0.0
0
LINE
5
1243
100
AcDbEntity
100
AcDbLine
8
3
62
256
370
-1
6
ByLayer
10
-29.337001854
20
-17.6274490944
30
0.0
11
-29.029249909
21
-17.3049060166
31
0.0
0
LINE
5
1244
100
AcDbEntity
100
AcDbLine
8
3
62
256
370
-1
6
ByLayer
10
-29.029249909
20
-17.3049060166
30
0.0
11
-28.7160889565
21
-16.9826476675
31
0.0
0
LINE
5
1245
100
AcDbEntity
100
AcDbLine
8
3
62
256
370
-1
6
ByLayer
10
-28.7160889565
20
-16.9826476675
30
0.0
11
-28.397589461
21
-16.6607667796
31
0.0
0
LINE
5
1246
100
AcDbEntity
100
AcDbLine
8
3
62
256
370
-1
6
ByLayer
10
-28.397589461
20
-16.6607667796
30
0.0
11
-28.0738235389
21
-16.3393554762
31
0.0
0
LINE
5
1247
100
AcDbEntity
100
AcDbLine
8
3
62
256
370
-1
6
ByLayer
10
-28.0738235389
20
-16.3393554762
30
0.0
11
-27.7448649414
21
-16.0185052425
31
0.0
0
LINE
5
1248
100
AcDbEntity
100
AcDbLine
8
3
62
256
370
-1
6
ByLayer
10
-27.7448649414
20
-16.0185052425
30
0.0
11
-27.4107890361
21
-15.6983068976
31
0.0
0
LINE
5
1249
100
AcDbEntity
100
AcDbLine
8
3
62
256
370
-1
6
ByLayer
10
-27.4107890361
20
-15.6983068976
30
0.0
11
-27.0716727885
21
-15.3788505659
31
0.0
0
LINE
5
1250
100
AcDbEntity
100
AcDbLine
8
3
62
256
370
-1
6
ByLayer
10
-27.0716727885
20
-15.3788505659
30
0.0
11
-26.7275947431
21
-15.0602256496
31
0.0
0
LINE
5
1251
100
AcDbEntity
100
AcDbLine
8
3
62
256
370
-1
6
ByLayer
10
-26.7275947431
20
-15.0602256496
30
0.0
11
-26.3786350036
21
-14.7425208005
31
0.0
0
LINE
5
1252
100
AcDbEntity
100
AcDbLine
8
3
62
256
370
-1
6
ByLayer
10
-26.3786350036
20
-14.7425208005
30
0.0
11
-26.0248752131
21
-14.4258238935
31
0.0
0
LINE
5
1253
100
AcDbEntity
100
AcDbLine
8
3
62
256
370
-1
6
ByLayer
10
-26.0248752131
20
-14.4258238935
30
0.0
11
-25.6663985334
21
-14.1102219988
31
0.0
0
LINE
5
1254
100
AcDbEntity
100
AcDbLine
8
3
62
256
370
-1
6
ByLayer
10
-25.6663985334
20
-14.1102219988
30
0.0
11
-25.3032896244
21
-13.7958013553
31
0.0
0
LINE
5
1255
100
AcDbEntity
100
AcDbLine
8
3
62
256
370
-1
6
ByLayer
10
-25.3032896244
20
-13.7958013553
30
0.0
11
-24.9356346222
21
-13.4826473443
31
0.0
0
LINE
5
1256
100
AcDbEntity
100
AcDbLine
8
3
62
256
370
-1
6
ByLayer
10
-24.9356346222
20
-13.4826473443
30
0.0
11
-24.5635211176
21
-13.1708444632
31
0.0
0
LINE
5
1257
100
AcDbEntity
100
AcDbLine
8
3
62
256
370
-1
6
ByLayer
10
-24.5635211176
20
-13.1708444632
30
0.0
11
-24.1870381336
21
-12.8604762996
31
0.0
0
LINE
5
1258
100
AcDbEntity
100
AcDbLine
8
3
62
256
370
-1
6
ByLayer
10
-24.1870381336
20
-12.8604762996
30
0.0
11
-23.8062761026
21
-12.5516255059
31
0.0
0
LINE
5
1259
100
AcDbEntity
100
AcDbLine
8
3
62
256
370
-1
6
ByLayer
10
-23.8062761026
20
-12.5516255059
30
0.0
11
-23.4213268433
21
-12.2443737738
31
0.0
0
LINE
5
1260
100
AcDbEntity
100
AcDbLine
8
3
62
256
370
-1
6
ByLayer
10
-23.4213268433
20
-12.2443737738
30
0.0
11
-23.032283537
21
-11.9388018098
31
0.0
0
LINE
5
1261
100
AcDbEntity
100
AcDbLine
8
3
62
256
370
-1
6
ByLayer
10
-23.032283537
20
-11.9388018098
30
0.0
11
-22.6392407035
21
-11.6349893104
31
0.0
0
LINE
5
1262
100
AcDbEntity
100
AcDbLine
8
3
62
256
370
-1
6
ByLayer
10
-22.6392407035
20
-11.6349893104
30
0.0
11
-22.2422941768
21
-11.3330149382
31
0.0
0
LINE
5
1263
100
AcDbEntity
100
AcDbLine
8
3
62
256
370
-1
6
ByLayer
10
-22.2422941768
20
-11.3330149382
30
0.0
11
-21.8415410797
21
-11.0329562977
31
0.0
0
LINE
5
1264
100
AcDbEntity
100
AcDbLine
8
3
62
256
370
-1
6
ByLayer
10
-21.8415410797
20
-11.0329562977
30
0.0
11
-21.4370797994
21
-10.7348899121
31
0.0
0
LINE
5
1265
100
AcDbEntity
100
AcDbLine
8
3
62
256
370
-1
6
ByLayer
10
-21.4370797994
20
-10.7348899121
30
0.0
11
-21.0290099608
21
-10.4388912004
31
0.0
0
LINE
5
1266
100
AcDbEntity
100
AcDbLine
8
3
62
256
370
-1
6
ByLayer
10
-21.0290099608
20
-10.4388912004
30
0.0
11
-20.6174324013
21
-10.1450344542
31
0.0
0
LINE
5
1267
100
AcDbEntity
100
AcDbLine
8
3
62
256
370
-1
6
ByLayer
10
-20.6174324013
20
-10.1450344542
30
0.0
11
-20.2024491434
21
-9.8533928161
31
0.0
0
LINE
5
1268
100
AcDbEntity
100
AcDbLine
8
3
62
256
370
-1
6
ByLayer
10
-20.2024491434
20
-9.8533928161
30
0.0
11
-19.7841633691
21
-9.5640382571
31
0.0
0
LINE
5
1269
100
AcDbEntity
100
AcDbLine
8
3
62
256
370
-1
6
ByLayer
10
-19.7841633691
20
-9.5640382571
30
0.0
11
-19.3626793913
21
-9.27704155554
31
0.0
0
LINE
5
1270
100
AcDbEntity
100
AcDbLine
8
3
62
256
370
-1
6
ByLayer
10
-19.3626793913
20
-9.27704155554
30
0.0
11
-18.9381026274
21
-8.99247227587
31
0.0
0
LINE
5
1271
100
AcDbEntity
100
AcDbLine
8
3
62
256
370
-1
6
ByLayer
10
-18.9381026274
20
-8.99247227587
30
0.0
11
-18.5105395708
21
-8.71039874798
31
0.0
0
LINE
5
1272
100
AcDbEntity
100
AcDbLine
8
3
62
256
370
-1
6
ByLayer
10
-18.5105395708
20
-8.71039874798
30
0.0
11
-18.0800977627
21
-8.43088804694
31
0.0
0
LINE
5
1273
100
AcDbEntity
100
AcDbLine
8
3
62
256
370
-1
6
ByLayer
10
-18.0800977627
20
-8.43088804694
30
0.0
11
-17.6468857637
21
-8.15400597316
31
0.0
0
LINE
5
1274
100
AcDbEntity
100
AcDbLine
8
3
62
256
370
-1
6
ByLayer
10
-17.6468857637
20
-8.15400597316
30
0.0
11
-17.2110131246
21
-7.87981703302
31
0.0
0
LINE
5
1275
100
AcDbEntity
100
AcDbLine
8
3
62
256
370
-1
6
ByLayer
10
-17.2110131246
20
-7.87981703302
30
0.0
11
-16.7725903575
21
-7.6083844199
31
0.0
0
LINE
5
1276
100
AcDbEntity
100
AcDbLine
8
3
62
256
370
-1
6
ByLayer
10
-16.7725903575
20
-7.6083844199
30
0.0
11
-16.3317289062
21
-7.33976999565
31
0.0
0
LINE
5
1277
100
AcDbEntity
100
AcDbLine
8
3
62
256
370
-1
6
ByLayer
10
-16.3317289062
20
-7.33976999565
30
0.0
11
-15.888541116
21
-7.07403427253
31
0.0
0
LINE
5
1278
100
AcDbEntity
100
AcDbLine
8
3
62
256
370
-1
6
ByLayer
10
-15.888541116
20
-7.07403427253
30
0.0
11
-15.4431402039
21
-6.81123639563
31
0.0
0
LINE
5
1279
100
AcDbEntity
100
AcDbLine
8
3
62
256
370
-1
6
ByLayer
10
-15.4431402039
20
-6.81123639563
30
0.0
11
-14.9956402283
21
-6.55143412568
31
0.0
0
LINE
5
1280
100
AcDbEntity
100
AcDbLine
8
3
62
256
370
-1
6
ByLayer
10
-14.9956402283
20
-6.55143412568
30
0.0
11
-14.5461560578
21
-6.29468382239
31
0.0
0
LINE
5
1281
100
AcDbEntity
100
AcDbLine
8
3
62
256
370
-1
6
ByLayer
10
-14.5461560578
20
-6.29468382239
30
0.0
11
-14.094803341
21
-6.04104042823
31
0.0
0
LINE
5
1282
100
AcDbEntity
100
AcDbLine
8
3
62
256
370
-1
6
ByLayer
10
-14.094803341
20
-6.04104042823
30
0.0
11
-13.6416984744
21
-5.79055745271
31
0.0
0
LINE
5
1283
100
AcDbEntity
100
AcDbLine
8
3
62
256
370
-1
6
ByLayer
10
-13.6416984744
20
-5.79055745271
30
0.0
11
-13.1869585717
21
-5.54328695708
31
0.0
0
LINE
5
1284
100
AcDbEntity
100
AcDbLine
8
3
62
256
370
-1
6
ByLayer
10
-13.1869585717
20
-5.54328695708
30
0.0
11
-12.7307014315
21
-5.29927953962
31
0.0
0
LINE
5
1285
100
AcDbEntity
100
AcDbLine
8
3
62
256
370
-1
6
ByLayer
10
-12.7307014315
20
-5.29927953962
30
0.0
11
-12.2730455061
21
-5.05858432131
31
0.0
0
LINE
5
1286
100
AcDbEntity
100
AcDbLine
8
3
62
256
370
-1
6
ByLayer
10
-12.2730455061
20
-5.05858432131
30
0.0
11
-11.8141098684
21
-4.82124893204
31
0.0
0
LINE
5
1287
100
AcDbEntity
100
AcDbLine
8
3
62
256
370
-1
6
ByLayer
10
-11.8141098684
20
-4.82124893204
30
0.0
11
-11.3540141803
21
-4.58731949736
31
0.0
0
LINE
5
1288
100
AcDbEntity
100
AcDbLine
8
3
62
256
370
-1
6
ByLayer
10
-11.3540141803
20
-4.58731949736
30
0.0
11
-10.89287866
21
-4.35684062562
31
0.0
0
LINE
5
1289
100
AcDbEntity
100
AcDbLine
8
3
62
256
370
-1
6
ByLayer
10
-10.89287866
20
-4.35684062562
30
0.0
11
-10.4308240488
21
-4.12985539576
31
0.0
0
LINE
5
1290
100
AcDbEntity
100
AcDbLine
8
3
62
256
370
-1
6
ByLayer
10
-10.4308240488
20
-4.12985539576
30
0.0
11
-9.96797157872
21
-3.90640534547
31
0.0
0
LINE
5
1291
100
AcDbEntity
100
AcDbLine
8
3
62
256
370
-1
6
ByLayer
10
-9.96797157872
20
-3.90640534547
30
0.0
11
-9.50444293908
21
-3.68653045995
31
0.0
0
LINE
5
1292
100
AcDbEntity
100
AcDbLine
8
3
62
256
370
-1
6
ByLayer
10
-9.50444293908
20
-3.68653045995
30
0.0
11
-9.04036024328
21
-3.47026916116
31
0.0
0
LINE
5
1293
100
AcDbEntity
100
AcDbLine
8
3
62
256
370
-1
6
ByLayer
10
-9.04036024328
20
-3.47026916116
30
0.0
11
-8.57584599539
21
-3.25765829758
31
0.0
0
LINE
5
1294
100
AcDbEntity
100
AcDbLine
8
3
62
256
370
-1
6
ByLayer
10
-8.57584599539
20
-3.25765829758
30
0.0
11
-8.11102305656
21
-3.0487331345
31
0.0
0
LINE
5
1295
100
AcDbEntity
100
AcDbLine
8
3
62
256
370
-1
6
ByLayer
10
-8.11102305656
20
-3.0487331345
30
0.0
11
-7.64601461134
21
-2.84352734482
31
0.0
0
LINE
5
1296
100
AcDbEntity
100
AcDbLine
8
3
62
256
370
-1
6
ByLayer
10
-7.64601461134
20
-2.84352734482
30
0.0
11
-7.1809441338
21
-2.64207300042
31
0.0
0
LINE
5
1297
100
AcDbEntity
100
AcDbLine
8
3
62
256
370
-1
6
ByLayer
10
-7.1809441338
20
-2.64207300042
30
0.0
11
-6.71593535363
21
-2.44440056398
31
0.0
0
LINE
5
1298
100
AcDbEntity
100
AcDbLine
8
3
62
256
370
-1
6
ByLayer
10
-6.71593535363
20
-2.44440056398
30
0.0
11
-6.25111222203
21
-2.25053888142
31
0.0
0
LINE
5
1299
100
AcDbEntity
100
AcDbLine
8
3
62
256
370
-1
6
ByLayer
10
-6.25111222203
20
-2.25053888142
30
0.0
11
-5.78659887763
21
-2.06051517481
31
0.0
0
LINE
5
1300
100
AcDbEntity
100
AcDbLine
8
3
62
256
370
-1
6
ByLayer
10
-5.78659887763
20
-2.06051517481
30
0.0
11
-5.32251961219
21
-1.87435503586
31
0.0
0
LINE
5
1301
100
AcDbEntity
100
AcDbLine
8
3
62
256
370
-1
6
ByLayer
10
-5.32251961219
20
-1.87435503586
30
0.0
11
-4.85899883635
21
-1.69208241987
31
0.0
0
LINE
5
1302
100
AcDbEntity
100
AcDbLine
8
3
62
256
370
-1
6
ByLayer
10
-4.85899883635
20
-1.69208241987
30
0.0
11
-4.39616104521
21
-1.51371964034
31
0.0
0
LINE
5
1303
100
AcDbEntity
100
AcDbLine
8
3
62
256
370
-1
6
ByLayer
10
-4.39616104521
20
-1.51371964034
30
0.0
11
-3.93413078393
21
-1.339287364
31
0.0
0
LINE
5
1304
100
AcDbEntity
100
AcDbLine
8
3
62
256
370
-1
6
ByLayer
10
-3.93413078393
20
-1.339287364
30
0.0
11
-3.47303261324
21
-1.16880460647
31
0.0
0
LINE
5
1305
100
AcDbEntity
100
AcDbLine
8
3
62
256
370
-1
6
ByLayer
10
-3.47303261324
20
-1.16880460647
30
0.0
11
-3.01299107494
21
-1.00228872842
31
0.0
0
LINE
5
1306
100
AcDbEntity
100
AcDbLine
8
3
62
256
370
-1
6
ByLayer
10
-3.01299107494
20
-1.00228872842
30
0.0
11
-2.55413065737
21
-0.839755432235
31
0.0
0
LINE
5
1307
100
AcDbEntity
100
AcDbLine
8
3
62
256
370
-1
6
ByLayer
10
-2.55413065737
20
-0.839755432235
30
0.0
11
-2.09657576084
21
-0.681218759343
31
0.0
0
LINE
5
1308
100
AcDbEntity
100
AcDbLine
8
3
62
256
370
-1
6
ByLayer
10
-2.09657576084
20
-0.681218759343
30
0.0
11
-1.64045066312
21
-0.526691087957
31
0.0
0
LINE
5
1309
100
AcDbEntity
100
AcDbLine
8
3
62
256
370
-1
6
ByLayer
10
-1.64045066312
20
-0.526691087957
30
0.0
11
-1.18587948484
21
-0.376183131444
31
0.0
0
LINE
5
1310
100
AcDbEntity
100
AcDbLine
8
3
62
256
370
-1
6
ByLayer
10
-1.18587948484
20
-0.376183131444
30
0.0
11
-0.732986154991
21
-0.229703937206
31
0.0
0
LINE
5
1311
100
AcDbEntity
100
AcDbLine
8
3
62
256
370
-1
6
ByLayer
10
-0.732986154991
20
-0.229703937206
30
0.0
11
-0.281894376425
21
-0.0872608861209
31
0.0
0
LINE
5
1312
100
AcDbEntity
100
AcDbLine
8
3
62
256
370
-1
6
ByLayer
10
-0.281894376425
20
-0.0872608861209
30
0.0
11
0.16727240864
21
0.0511403074829
31
0.0
0
LINE
5
1313
100
AcDbEntity
100
AcDbLine
8
3
62
256
370
-1
6
ByLayer
10
0.16727240864
20
0.0511403074829
30
0.0
11
0.614391053032
21
0.185495595297
31
0.0
0
LINE
5
1314
100
AcDbEntity
100
AcDbLine
8
3
62
256
370
-1
6
ByLayer
10
0.614391053032
20
0.185495595297
30
0.0
11
1.05933873899
21
0.315802593965
31
0.0
0
LINE
5
1315
100
AcDbEntity
100
AcDbLine
8
3
62
256
370
-1
6
ByLayer
10
1.05933873899
20
0.315802593965
30
0.0
11
1.50199301248
21
0.442060583465
31
0.0
0
LINE
5
1316
100
AcDbEntity
100
AcDbLine
8
3
62
256
370
-1
6
ByLayer
10
1.50199301248
20
0.442060583465
30
0.0
11
1.9422318174
21
0.564270504954
31
0.0
0
LINE
5
1317
100
AcDbEntity
100
AcDbLine
8
3
62
256
370
-1
6
ByLayer
10
1.9422318174
20
0.564270504954
30
0.0
11
2.37993352975
21
0.682434958069
31
0.0
0
LINE
5
1318
100
AcDbEntity
100
AcDbLine
8
3
62
256
370
-1
6
ByLayer
10
2.37993352975
20
0.682434958069
30
0.0
11
2.81497699165
21
0.796558197678
31
0.0
0
LINE
5
1319
100
AcDbEntity
100
AcDbLine
8
3
62
256
370
-1
6
ByLayer
10
2.81497699165
20
0.796558197678
30
0.0
11
3.24724154528
21
0.906646130108
31
0.0
0
LINE
5
1320
100
AcDbEntity
100
AcDbLine
8
3
62
256
370
-1
6
ByLayer
10
3.24724154528
20
0.906646130108
30
0.0
11
3.67660706674
21
1.01270630881
31
0.0
0
LINE
5
1321
100
AcDbEntity
100
AcDbLine
8
3
62
256
370
-1
6
ByLayer
10
3.67660706674
20
1.01270630881
30
0.0
11
4.10295399968
21
1.11474792953
31
0.0
0
LINE
5
1322
100
AcDbEntity
100
AcDbLine
8
3
62
256
370
-1
6
ByLayer
10
4.10295399968
20
1.11474792953
30
0.0
11
4.52616338894
21
1.21278182488
31
0.0
0
LINE
5
1323
100
AcDbEntity
100
AcDbLine
8
3
62
256
370
-1
6
ByLayer
10
4.52616338894
20
1.21278182488
30
0.0
11
4.94611691388
21
1.30682045842
31
0.0
0
LINE
5
1324
100
AcDbEntity
100
AcDbLine
8
3
62
256
370
-1
6
ByLayer
10
4.94611691388
20
1.30682045842
30
0.0
11
5.36269692172
21
1.39687791822
31
0.0
0
LINE
5
1325
100
AcDbEntity
100
AcDbLine
8
3
62
256
370
-1
6
ByLayer
10
5.36269692172
20
1.39687791822
30
0.0
11
5.77578646058
21
1.48296990988
31
0.0
0
LINE
5
1326
100
AcDbEntity
100
AcDbLine
8
3
62
256
370
-1
6
ByLayer
10
5.77578646058
20
1.48296990988
30
0.0
11
6.18526931241
21
1.56511374896
31
0.0
0
LINE
5
1327
100
AcDbEntity
100
AcDbLine
8
3
62
256
370
-1
6
ByLayer
10
6.18526931241
20
1.56511374896
30
0.0
11
6.59103002576
21
1.643328353
31
0.0
0
LINE
5
1328
100
AcDbEntity
100
AcDbLine
8
3
62
256
370
-1
6
ByLayer
10
6.59103002576
20
1.643328353
30
0.0
11
6.99295394826
21
1.71763423295
31
0.0
0
LINE
5
1329
100
AcDbEntity
100
AcDbLine
8
3
62
256
370
-1
6
ByLayer
10
6.99295394826
20
1.71763423295
30
0.0
11
7.39092725901
21
1.78805348408
31
0.0
0
LINE
5
1330
100
AcDbEntity
100
AcDbLine
8
3
62
256
370
-1
6
ByLayer
10
7.39092725901
20
1.78805348408
30
0.0
11
7.78483700068
21
1.85460977638
31
0.0
0
LINE
5
1331
100
AcDbEntity
100
AcDbLine
8
3
62
256
370
-1
6
ByLayer
10
7.78483700068
20
1.85460977638
30
0.0
11
8.1745711114
21
1.91732834448
31
0.0
0
LINE
5
1332
100
AcDbEntity
100
AcDbLine
8
3
62
256
370
-1
6
ByLayer
10
8.1745711114
20
1.91732834448
30
0.0
11
8.56001845646
21
1.97623597704
31
0.0
0
LINE
5
1333
100
AcDbEntity
100
AcDbLine
8
3
62
256
370
-1
6
ByLayer
10
8.56001845646
20
1.97623597704
30
0.0
11
8.94106885971
21
2.03136100561
31
0.0
0
LINE
5
1334
100
AcDbEntity
100
AcDbLine
8
3
62
256
370
-1
6
ByLayer
10
8.94106885971
20
2.03136100561
30
0.0
11
9.31761313475
21
2.08273329301
31
0.0
0
LINE
5
1335
100
AcDbEntity
100
AcDbLine
8
3
62
256
370
-1
6
ByLayer
10
9.31761313475
20
2.08273329301
30
0.0
11
9.68954311584
21
2.13038422123
31
0.0
0
LINE
5
1336
100
AcDbEntity
100
AcDbLine
8
3
62
256
370
-1
6
ByLayer
10
9.68954311584
20
2.13038422123
30
0.0
11
10.0567516885
21
2.17434667884
31
0.0
0
LINE
5
1337
100
AcDbEntity
100
AcDbLine
8
3
62
256
370
-1
6
ByLayer
10
10.0567516885
20
2.17434667884
30
0.0
11
10.4191328201
21
2.21465504783
31
0.0
0
LINE
5
1338
100
AcDbEntity
100
AcDbLine
8
3
62
256
370
-1
6
ByLayer
10
10.4191328201
20
2.21465504783
30
0.0
11
10.7765815896
21
2.25134519008
31
0.0
0
LINE
5
1339
100
AcDbEntity
100
AcDbLine
8
3
62
256
370
-1
6
ByLayer
10
10.7765815896
20
2.25134519008
30
0.0
11
11.1289942175
21
2.28445443329
31
0.0
0
LINE
5
1340
100
AcDbEntity
100
AcDbLine
8
3
62
256
370
-1
6
ByLayer
10
11.1289942175
20
2.28445443329
30
0.0
11
11.4762680954
21
2.31402155642
31
0.0
0
LINE
5
1341
100
AcDbEntity
100
AcDbLine
8
3
62
256
370
-1
6
ByLayer
10
11.4762680954
20
2.31402155642
30
0.0
11
11.8183018151
21
2.34008677468
31
0.0
0
LINE
5
1342
100
AcDbEntity
100
AcDbLine
8
3
62
256
370
-1
6
ByLayer
10
11.8183018151
20
2.34008677468
30
0.0
11
12.1549951976
21
2.36269172407
31
0.0
0
LINE
5
1343
100
AcDbEntity
100
AcDbLine
8
3
62
256
370
-1
6
ByLayer
10
12.1549951976
20
2.36269172407
30
0.0
11
12.4862493211
21
2.38187944544
31
0.0
0
LINE
5
1344
100
AcDbEntity
100
AcDbLine
8
3
62
256
370
-1
6
ByLayer
10
12.4862493211
20
2.38187944544
30
0.0
11
12.8119665498
21
2.39769436809
31
0.0
0
LINE
5
1345
100
AcDbEntity
100
AcDbLine
8
3
62
256
370
-1
6
ByLayer
10
12.8119665498
20
2.39769436809
30
0.0
11
13.1320505616
21
2.41018229291
31
0.0
0
LINE
5
1346
100
AcDbEntity
100
AcDbLine
8
3
62
256
370
-1
6
ByLayer
10
13.1320505616
20
2.41018229291
30
0.0
11
13.4464063751
21
2.41939037512
31
0.0
0
LINE
5
1347
100
AcDbEntity
100
AcDbLine
8
3
62
256
370
-1
6
ByLayer
10
13.4464063751
20
2.41939037512
30
0.0
11
13.7549403772
21
2.42536710654
31
0.0
0
LINE
5
1348
100
AcDbEntity
100
AcDbLine
8
3
62
256
370
-1
6
ByLayer
10
13.7549403772
20
2.42536710654
30
0.0
11
14.05756035
21
2.42816229741
31
0.0
0
LINE
5
1349
100
AcDbEntity
100
AcDbLine
8
3
62
256
370
-1
6
ByLayer
10
14.05756035
20
2.42816229741
30
0.0
11
14.3541754964
21
2.4278270578
31
0.0
0
LINE
5
1350
100
AcDbEntity
100
AcDbLine
8
3
62
256
370
-1
6
ByLayer
10
14.3541754964
20
2.4278270578
30
0.0
11
14.6446964669
21
2.42441377861
31
0.0
0
LINE
5
1351
100
AcDbEntity
100
AcDbLine
8
3
62
256
370
-1
6
ByLayer
10
14.6446964669
20
2.42441377861
30
0.0
11
14.9290353846
21
2.41797611215
31
0.0
0
LINE
5
1352
100
AcDbEntity
100
AcDbLine
8
3
62
256
370
-1
6
ByLayer
10
14.9290353846
20
2.41797611215
30
0.0
11
15.2071058708
21
2.4085689523
31
0.0
0
LINE
5
1353
100
AcDbEntity
100
AcDbLine
8
3
62
256
370
-1
6
ByLayer
10
15.2071058708
20
2.4085689523
30
0.0
11
15.4788230694
21
2.39624841426
31
0.0
0
LINE
5
1354
100
AcDbEntity
100
AcDbLine
8
3
62
256
370
-1
6
ByLayer
10
15.4788230694
20
2.39624841426
30
0.0
11
15.7441036715
21
2.38107181391
31
0.0
0
LINE
5
1355
100
AcDbEntity
100
AcDbLine
8
3
62
256
370
-1
6
ByLayer
10
15.7441036715
20
2.38107181391
30
0.0
11
16.0028659393
21
2.36309764682
31
0.0
0
LINE
5
1356
100
AcDbEntity
100
AcDbLine
8
3
62
256
370
-1
6
ByLayer
10
16.0028659393
20
2.36309764682
30
0.0
11
16.2550297295
21
2.34238556683
31
0.0
0
LINE
5
1357
100
AcDbEntity
100
AcDbLine
8
3
62
256
370
-1
6
ByLayer
10
16.2550297295
20
2.34238556683
30
0.0
11
16.5005165163
21
2.31899636422
31
0.0
0
LINE
5
1358
100
AcDbEntity
100
AcDbLine
8
3
62
256
370
-1
6
ByLayer
10
16.5005165163
20
2.31899636422
30
0.0
11
16.7392494144
21
2.29299194366
31
0.0
0
LINE
5
1359
100
AcDbEntity
100
AcDbLine
8
3
62
256
370
-1
6
ByLayer
10
16.7392494144
20
2.29299194366
30
0.0
11
16.9711532006
21
2.26443530158
31
0.0
0
LINE
5
1360
100
AcDbEntity
100
AcDbLine
8
3
62
256
370
-1
6
ByLayer
10
16.9711532006
20
2.26443530158
30
0.0
11
17.196154336
21
2.23339050339
31
0.0
0
LINE
5
1361
100
AcDbEntity
100
AcDbLine
8
3
62
256
370
-1
6
ByLayer
10
17.196154336
20
2.23339050339
30
0.0
11
17.4141809869
21
2.19992266022
31
0.0
0
LINE
5
1362
100
AcDbEntity
100
AcDbLine
8
3
62
256
370
-1
6
ByLayer
10
17.4141809869
20
2.19992266022
30
0.0
11
17.6251630458
21
2.16409790542
31
0.0
0
LINE
5
1363
100
AcDbEntity
100
AcDbLine
8
3
62
256
370
-1
6
ByLayer
10
17.6251630458
20
2.16409790542
30
0.0
11
17.8290321514
21
2.12598337057
31
0.0
0
LINE
5
1364
100
AcDbEntity
100
AcDbLine
8
3
62
256
370
-1
6
ByLayer
10
17.8290321514
20
2.12598337057
30
0.0
11
18.0257217088
21
2.0856471614
31
0.0
0
LINE
5
1365
100
AcDbEntity
100
AcDbLine
8
3
62
256
370
-1
6
ByLayer
10
18.0257217088
20
2.0856471614
30
0.0
11
18.2151669086
21
2.04315833317
31
0.0
0
LINE
5
1366
100
AcDbEntity
100
AcDbLine
8
3
62
256
370
-1
6
ByLayer
10
18.2151669086
20
2.04315833317
30
0.0
11
18.3973047457
21
1.99858686585
31
0.0
0
LINE
5
1367
100
AcDbEntity
100
AcDbLine
8
3
62
256
370
-1
6
ByLayer
10
18.3973047457
20
1.99858686585
30
0.0
11
18.5720740377
21
1.95200363903
31
0.0
0
LINE
5
1368
100
AcDbEntity
100
AcDbLine
8
3
62
256
370
-1
6
ByLayer
10
18.5720740377
20
1.95200363903
30
0.0
11
18.7394154426
21
1.90348040644
31
0.0
0
LINE
5
1369
100
AcDbEntity
100
AcDbLine
8
3
62
256
370
-1
6
ByLayer
10
18.7394154426
20
1.90348040644
30
0.0
11
18.8992714762
21
1.85308977026
31
0.0
0
LINE
5
1370
100
AcDbEntity
100
AcDbLine
8
3
62
256
370
-1
6
ByLayer
10
18.8992714762
20
1.85308977026
30
0.0
11
19.0515865291
21
1.80090515512
31
0.0
0
LINE
5
1371
100
AcDbEntity
100
AcDbLine
8
3
62
256
370
-1
6
ByLayer
10
19.0515865291
20
1.80090515512
30
0.0
11
19.1963068826
21
1.74700078188
31
0.0
0
LINE
5
1372
100
AcDbEntity
100
AcDbLine
8
3
62
256
370
-1
6
ByLayer
10
19.1963068826
20
1.74700078188
30
0.0
11
19.3333807247
21
1.69145164104
31
0.0
0
LINE
5
1373
100
AcDbEntity
100
AcDbLine
8
3
62
256
370
-1
6
ByLayer
10
19.3333807247
20
1.69145164104
30
0.0
11
19.4627581651
21
1.63433346605
31
0.0
0
LINE
5
1374
100
AcDbEntity
100
AcDbLine
8
3
62
256
370
-1
6
ByLayer
10
19.4627581651
20
1.63433346605
30
0.0
11
19.5843912501
21
1.57572270625
31
0.0
0
LINE
5
1375
100
AcDbEntity
100
AcDbLine
8
3
62
256
370
-1
6
ByLayer
10
19.5843912501
20
1.57572270625
30
0.0
11
19.6982339767
21
1.51569649964
31
0.0
0
LINE
5
1376
100
AcDbEntity
100
AcDbLine
8
3
62
256
370
-1
6
ByLayer
10
19.6982339767
20
1.51569649964
30
0.0
11
19.8042423061
21
1.45433264542
31
0.0
0
LINE
5
1377
100
AcDbEntity
100
AcDbLine
8
3
62
256
370
-1
6
ByLayer
10
19.8042423061
20
1.45433264542
30
0.0
11
19.9023741768
21
1.39170957629
31
0.0
0
LINE
5
1378
100
AcDbEntity
100
AcDbLine
8
3
62
256
370
-1
6
ByLayer
10
19.9023741768
20
1.39170957629
30
0.0
11
19.9925895172
21
1.32790633057
31
0.0
0
LINE
5
1379
100
AcDbEntity
100
AcDbLine
8
3
62
256
370
-1
6
ByLayer
10
19.9925895172
20
1.32790633057
30
0.0
11
20.0748502574
21
1.26300252411
31
0.0
0
LINE
5
1380
100
AcDbEntity
100
AcDbLine
8
3
62
256
370
-1
6
ByLayer
10
20.0748502574
20
1.26300252411
30
0.0
11
20.1491203406
21
1.19707832198
31
0.0
0
LINE
5
1381
100
AcDbEntity
100
AcDbLine
8
3
62
256
370
-1
6
ByLayer
10
20.1491203406
20
1.19707832198
30
0.0
11
20.215365734
21
1.13021441005
31
0.0
0
LINE
5
1382
100
AcDbEntity
100
AcDbLine
8
3
62
256
370
-1
6
ByLayer
10
20.215365734
20
1.13021441005
30
0.0
11
20.2735544391
21
1.06249196633
31
0.0
0
LINE
5
1383
100
AcDbEntity
100
AcDbLine
8
3
62
256
370
-1
6
ByLayer
10
20.2735544391
20
1.06249196633
30
0.0
11
20.3236565013
21
0.993992632178
31
0.0
0
LINE
5
1384
100
AcDbEntity
100
AcDbLine
8
3
62
256
370
-1
6
ByLayer
10
20.3236565013
20
0.993992632178
30
0.0
11
20.3656440189
21
0.924798483369
31
0.0
0
LINE
5
1385
100
AcDbEntity
100
AcDbLine
8
3
62
256
370
-1
6
ByLayer
10
20.3656440189
20
0.924798483369
30
0.0
11
20.399491152
21
0.854992000981
31
0.0
0
LINE
5
1386
100
AcDbEntity
100
AcDbLine
8
3
62
256
370
-1
6
ByLayer
10
20.399491152
20
0.854992000981
30
0.0
11
20.4251741301
21
0.784656042178
31
0.0
0
LINE
5
1387
100
AcDbEntity
100
AcDbLine
8
3
62
256
370
-1
6
ByLayer
10
20.4251741301
20
0.784656042178
30
0.0
11
20.4426712599
21
0.713873810861
31
0.0
0
LINE
5
1388
100
AcDbEntity
100
AcDbLine
8
3
62
256
370
-1
6
ByLayer
10
20.4426712599
20
0.713873810861
30
0.0
11
20.4519629315
21
0.642728828195
31
0.0
0
LINE
5
1389
100
AcDbEntity
100
AcDbLine
8
3
62
256
370
-1
6
ByLayer
10
20.4519629315
20
0.642728828195
30
0.0
11
20.4530316254
21
0.571304903035
31
0.0
0
LINE
5
1390
100
AcDbEntity
100
AcDbLine
8
3
62
256
370
-1
6
ByLayer
10
20.4530316254
20
0.571304903035
30
0.0
11
20.4458619174
21
0.499686102259
31
0.0
0
LINE
5
1391
100
AcDbEntity
100
AcDbLine
8
3
62
256
370
-1
6
ByLayer
10
20.4458619174
20
0.499686102259
30
0.0
11
20.4304404843
21
0.427956721005
31
0.0
0
LINE
5
1392
100
AcDbEntity
100
AcDbLine
8
3
62
256
370
-1
6
ByLayer
10
20.4304404843
20
0.427956721005
30
0.0
11
20.4067561079
21
0.356201252837
31
0.0
0
LINE
5
1393
100
AcDbEntity
100
AcDbLine
8
3
62
256
370
-1
6
ByLayer
10
20.4067561079
20
0.356201252837
30
0.0
11
20.374799679
21
0.284504359837
31
0.0
0
LINE
5
1394
100
AcDbEntity
100
AcDbLine
8
3
62
256
370
-1
6
ByLayer
10
20.374799679
20
0.284504359837
30
0.0
11
20.334564201
21
0.21295084264
31
0.0
0
LINE
5
1395
100
AcDbEntity
100
AcDbLine
8
3
62
256
370
-1
6
ByLayer
10
20.334564201
20
0.21295084264
30
0.0
11
20.286044792
21
0.141625610426
31
0.0
0
LINE
5
1396
100
AcDbEntity
100
AcDbLine
8
3
62
256
370
-1
6
ByLayer
10
20.286044792
20
0.141625610426
30
0.0
11
20.2292386877
21
0.0706136508566
31
0.0
0
LINE
5
1397
100
AcDbEntity
100
AcDbLine
8
3
62
256
370
-1
6
ByLayer
10
20.2292386877
20
0.0706136508566
30
0.0
11
20.164145242
21
3.70397105741e-15
31
0.0
0
LINE
5
1398
100
AcDbEntity
100
AcDbLine
8
3
62
256
370
-1
6
ByLayer
10
20.164145242
20
3.70397105741e-15
30
0.0
11
20.0907659287
21
-0.0701302877798
31
0.0
0
LINE
5
1399
100
AcDbEntity
100
AcDbLine
8
3
62
256
370
-1
6
ByLayer
10
20.0907659287
20
-0.0701302877798
30
0.0
11
20.0091043415
21
-0.139692169937
31
0.0
0
LINE
5
1400
100
AcDbEntity
100
AcDbLine
8
3
62
256
370
-1
6
ByLayer
10
20.0091043415
20
-0.139692169937
30
0.0
11
19.9191661936
21
-0.20860064586
31
0.0
0
LINE
5
1401
100
AcDbEntity
100
AcDbLine
8
3
62
256
370
-1
6
ByLayer
10
19.9191661936
20
-0.20860064586
30
0.0
11
19.820959317
21
-0.276770786986
31
0.0
0
LINE
5
1402
100
AcDbEntity
100
AcDbLine
8
3
62
256
370
-1
6
ByLayer
10
19.820959317
20
-0.276770786986
30
0.0
11
19.7144936613
21
-0.344117766886
31
0.0
0
LINE
5
1403
100
AcDbEntity
100
AcDbLine
8
3
62
256
370
-1
6
ByLayer
10
19.7144936613
20
-0.344117766886
30
0.0
11
19.5997812912
21
-0.410556891333
31
0.0
0
LINE
5
1404
100
AcDbEntity
100
AcDbLine
8
3
62
256
370
-1
6
ByLayer
10
19.5997812912
20
-0.410556891333
30
0.0
11
19.476836384
21
-0.476003628331
31
0.0
0
LINE
5
1405
100
AcDbEntity
100
AcDbLine
8
3
62
256
370
-1
6
ByLayer
10
19.476836384
20
-0.476003628331
30
0.0
11
19.3456752265
21
-0.540373638093
31
0.0
0
LINE
5
1406
100
AcDbEntity
100
AcDbLine
8
3
62
256
370
-1
6
ByLayer
10
19.3456752265
20
-0.540373638093
30
0.0
11
19.2063162112
21
-0.603582802967
31
0.0
0
LINE
5
1407
100
AcDbEntity
100
AcDbLine
8
3
62
256
370
-1
6
ByLayer
10
19.2063162112
20
-0.603582802967
30
0.0
11
19.0587798317
21
-0.665547257298
31
0.0
0
LINE
5
1408
100
AcDbEntity
100
AcDbLine
8
3
62
256
370
-1
6
ByLayer
10
19.0587798317
20
-0.665547257298
30
0.0
11
18.9030886778
21
-0.726183417209
31
0.0
0
LINE
5
1409
100
AcDbEntity
100
AcDbLine
8
3
62
256
370
-1
6
ByLayer
10
18.9030886778
20
-0.726183417209
30
0.0
11
18.73926743
21
-0.785408010304
31
0.0
0
LINE
5
1410
100
AcDbEntity
100
AcDbLine
8
3
62
256
370
-1
6
ByLayer
10
18.73926743
20
-0.785408010304
30
0.0
11
18.5673428531
21
-0.843138105272
31
0.0
0
LINE
5
1411
100
AcDbEntity
100
AcDbLine
8
3
62
256
370
-1
6
ByLayer
10
18.5673428531
20
-0.843138105272
30
0.0
11
18.3873437897
21
-0.899291141392
31
0.0
0
LINE
5
1412
100
AcDbEntity
100
AcDbLine
8
3
62
256
370
-1
6
ByLayer
10
18.3873437897
20
-0.899291141392
30
0.0
11
18.1993011527
21
-0.953784957917
31
0.0
0
LINE
5
1413
100
AcDbEntity
100
AcDbLine
8
3
62
256
370
-1
6
ByLayer
10
18.1993011527
20
-0.953784957917
30
0.0
11
18.0032479176
21
-1.00653782335
31
0.0
0
LINE
5
1414
100
AcDbEntity
100
AcDbLine
8
3
62
256
370
-1
6
ByLayer
10
18.0032479176
20
-1.00653782335
30
0.0
11
17.7992191135
21
-1.05746846457
31
0.0
0
LINE
5
1415
100
AcDbEntity
100
AcDbLine
8
3
62
256
370
-1
6
ByLayer
10
17.7992191135
20
-1.05746846457
30
0.0
11
17.5872518149
21
-1.10649609584
31
0.0
0
LINE
5
1416
100
AcDbEntity
100
AcDbLine
8
3
62
256
370
-1
6
ByLayer
10
17.5872518149
20
-1.10649609584
30
0.0
11
17.367385131
21
-1.15354044763
31
0.0
0
LINE
5
1417
100
AcDbEntity
100
AcDbLine
8
3
62
256
370
-1
6
ByLayer
10
17.367385131
20
-1.15354044763
30
0.0
11
17.1396601965
21
-1.19852179534
31
0.0
0
LINE
5
1418
100
AcDbEntity
100
AcDbLine
8
3
62
256
370
-1
6
ByLayer
10
17.1396601965
20
-1.19852179534
30
0.0
11
16.90412016
21
-1.24136098775
31
0.0
0
LINE
5
1419
100
AcDbEntity
100
AcDbLine
8
3
62
256
370
-1
6
ByLayer
10
16.90412016
20
-1.24136098775
30
0.0
11
16.6608101733
21
-1.28197947546
31
0.0
0
LINE
5
1420
100
AcDbEntity
100
AcDbLine
8
3
62
256
370
-1
6
ByLayer
10
16.6608101733
20
-1.28197947546
30
0.0
11
16.4097773791
21
-1.32029933893
31
0.0
0
LINE
5
1421
100
AcDbEntity
100
AcDbLine
8
3
62
256
370
-1
6
ByLayer
10
16.4097773791
20
-1.32029933893
30
0.0
11
16.1510708987
21
-1.35624331652
31
0.0
0
LINE
5
1422
100
AcDbEntity
100
AcDbLine
8
3
62
256
370
-1
6
ByLayer
10
16.1510708987
20
-1.35624331652
30
0.0
11
15.8847418191
21
-1.38973483221
31
0.0
0
LINE
5
1423
100
AcDbEntity
100
AcDbLine
8
3
62
256
370
-1
6
ByLayer
10
15.8847418191
20
-1.38973483221
30
0.0
11
15.6108431791
21
-1.42069802314
31
0.0
0
LINE
5
1424
100
AcDbEntity
100
AcDbLine
8
3
62
256
370
-1
6
ByLayer
10
15.6108431791
20
-1.42069802314
30
0.0
11
15.3294299557
21
-1.44905776692
31
0.0
0
LINE
5
1425
100
AcDbEntity
100
AcDbLine
8
3
62
256
370
-1
6
ByLayer
10
15.3294299557
20
-1.44905776692
30
0.0
11
15.0405590489
21
-1.47473970875
31
0.0
0
LINE
5
1426
100
AcDbEntity
100
AcDbLine
8
3
62
256
370
-1
6
ByLayer
10
15.0405590489
20
-1.47473970875
30
0.0
11
14.7442892671
21
-1.49767028821
31
0.0
0
LINE
5
1427
100
AcDbEntity
100
AcDbLine
8
3
62
256
370
-1
6
ByLayer
10
14.7442892671
20
-1.49767028821
30
0.0
11
14.4406813109
21
-1.5177767659
31
0.0
0
LINE
5
1428
100
AcDbEntity
100
AcDbLine
8
3
62
256
370
-1
6
ByLayer
10
14.4406813109
20
-1.5177767659
30
0.0
11
14.1297977573
21
-1.53498724977
31
0.0
0
LINE
5
1429
100
AcDbEntity
100
AcDbLine
8
3
62
256
370
-1
6
ByLayer
10
14.1297977573
20
-1.53498724977
30
0.0
11
13.8117030426
21
-1.5492307212
31
0.0
0
LINE
5
1430
100
AcDbEntity
100
AcDbLine
8
3
62
256
370
-1
6
ByLayer
10
13.8117030426
20
-1.5492307212
30
0.0
11
13.4864634451
21
-1.56043706077
31
0.0
0
LINE
5
1431
100
AcDbEntity
100
AcDbLine
8
3
62
256
370
-1
6
ByLayer
10
13.4864634451
20
-1.56043706077
30
0.0
11
13.1541470678
21
-1.56853707384
31
0.0
0
LINE
5
1432
100
AcDbEntity
100
AcDbLine
8
3
62
256
370
-1
6
ByLayer
10
13.1541470678
20
-1.56853707384
30
0.0
11
12.8148238195
21
-1.57346251573
31
0.0
0
LINE
5
1433
100
AcDbEntity
100
AcDbLine
8
3
62
256
370
-1
6
ByLayer
10
12.8148238195
20
-1.57346251573
30
0.0
11
12.4685653965
21
-1.57514611666
31
0.0
0
LINE
5
1434
100
AcDbEntity
100
AcDbLine
8
3
62
256
370
-1
6
ByLayer
10
12.4685653965
20
-1.57514611666
30
0.0
11
12.1154452629
21
-1.57352160639
31
0.0
0
LINE
5
1435
100
AcDbEntity
100
AcDbLine
8
3
62
256
370
-1
6
ByLayer
10
12.1154452629
20
-1.57352160639
30
0.0
11
11.7555386312
21
-1.56852373854
31
0.0
0
LINE
5
1436
100
AcDbEntity
100
AcDbLine
8
3
62
256
370
-1
6
ByLayer
10
11.7555386312
20
-1.56852373854
30
0.0
11
11.3889224417
21
-1.56008831456
31
0.0
0
LINE
5
1437
100
AcDbEntity
100
AcDbLine
8
3
62
256
370
-1
6
ByLayer
10
11.3889224417
20
-1.56008831456
30
0.0
11
11.015675342
21
-1.54815220738
31
0.0
0
LINE
5
1438
100
AcDbEntity
100
AcDbLine
8
3
62
256
370
-1
6
ByLayer
10
11.015675342
20
-1.54815220738
30
0.0
11
10.6358776656
21
-1.53265338477
31
0.0
0
LINE
5
1439
100
AcDbEntity
100
AcDbLine
8
3
62
256
370
-1
6
ByLayer
10
10.6358776656
20
-1.53265338477
30
0.0
11
10.2496114104
21
-1.51353093231
31
0.0
0
LINE
5
1440
100
AcDbEntity
100
AcDbLine
8
3
62
256
370
-1
6
ByLayer
10
10.2496114104
20
-1.51353093231
30
0.0
11
9.85696021634
21
-1.49072507598
31
0.0
0
LINE
5
1441
100
AcDbEntity
100
AcDbLine
8
3
62
256
370
-1
6
ByLayer
10
9.85696021634
20
-1.49072507598
30
0.0
11
9.45800934306
21
-1.46417720448
31
0.0
0
LINE
5
1442
100
AcDbEntity
100
AcDbLine
8
3
62
256
370
-1
6
ByLayer
10
9.45800934306
20
-1.46417720448
30
0.0
11
9.05284564662
21
-1.43382989108
31
0.0
0
LINE
5
1443
100
AcDbEntity
100
AcDbLine
8
3
62
256
370
-1
6
ByLayer
10
9.05284564662
20
-1.43382989108
30
0.0
11
8.64155755615
21
-1.39962691522
31
0.0
0
LINE
5
1444
100
AcDbEntity
100
AcDbLine
8
3
62
256
370
-1
6
ByLayer
10
8.64155755615
20
-1.39962691522
30
0.0
11
8.22423504989
21
-1.36151328357
31
0.0
0
LINE
5
1445
100
AcDbEntity
100
AcDbLine
8
3
62
256
370
-1
6
ByLayer
10
8.22423504989
20
-1.36151328357
30
0.0
11
7.80096963084
21
-1.31943525085
31
0.0
0
LINE
5
1446
100
AcDbEntity
100
AcDbLine
8
3
62
256
370
-1
6
ByLayer
10
7.80096963084
20
-1.31943525085
30
0.0
11
7.37185430201
21
-1.27334034018
31
0.0
0
LINE
5
1447
100
AcDbEntity
100
AcDbLine
8
3
62
256
370
-1
6
ByLayer
10
7.37185430201
20
-1.27334034018
30
0.0
11
6.93698354123
21
-1.22317736305
31
0.0
0
LINE
5
1448
100
AcDbEntity
100
AcDbLine
8
3
62
256
370
-1
6
ByLayer
10
6.93698354123
20
-1.22317736305
30
0.0
11
6.49645327559
21
-1.16889643887
31
0.0
0
LINE
5
1449
100
AcDbEntity
100
AcDbLine
8
3
62
256
370
-1
6
ByLayer
10
6.49645327559
20
-1.16889643887
30
0.0
11
6.05036085543
21
-1.11044901412
31
0.0
0
LINE
5
1450
100
AcDbEntity
100
AcDbLine
8
3
62
256
370
-1
6
ByLayer
10
6.05036085543
20
-1.11044901412
30
0.0
11
5.59880502802
21
-1.04778788108
31
0.0
0
LINE
5
1451
100
AcDbEntity
100
AcDbLine
8
3
62
256
370
-1
6
ByLayer
10
5.59880502802
20
-1.04778788108
30
0.0
11
5.14188591075
21
-0.98086719612
31
0.0
0
LINE
5
1452
100
AcDbEntity
100
AcDbLine
8
3
62
256
370
-1
6
ByLayer
10
5.14188591075
20
-0.98086719612
30
0.0
11
4.67970496406
21
-0.909642497587
31
0.0
0
LINE
5
1453
100
AcDbEntity
100
AcDbLine
8
3
62
256
370
-1
6
ByLayer
10
4.67970496406
20
-0.909642497587
30
0.0
11
4.21236496392
21
-0.834070723221
31
0.0
0
LINE
5
1454
100
AcDbEntity
100
AcDbLine
8
3
62
256
370
-1
6
ByLayer
10
4.21236496392
20
-0.834070723221
30
0.0
11
3.73996997401
21
-0.754110227147
31
0.0
0
LINE
5
1455
100
AcDbEntity
100
AcDbLine
8
3
62
256
370
-1
6
ByLayer
10
3.73996997401
20
-0.754110227147
30
0.0
11
3.26262531747
21
-0.66972079642
31
0.0
0
LINE
5
1456
100
AcDbEntity
100
AcDbLine
8
3
62
256
370
-1
6
ByLayer
10
3.26262531747
20
-0.66972079642
30
0.0
11
2.78043754843
21
-0.580863667106
31
0.0
0
LINE
5
1457
100
AcDbEntity
100
AcDbLine
8
3
62
256
370
-1
6
ByLayer
10
2.78043754843
20
-0.580863667106
30
0.0
11
2.2935144231
21
-0.487501539914
31
0.0
0
LINE
5
1458
100
AcDbEntity
100
AcDbLine
8
3
62
256
370
-1
6
ByLayer
10
2.2935144231
20
-0.487501539914
30
0.0
11
1.80196487056
21
-0.389598595354
31
0.0
0
LINE
5
1459
100
AcDbEntity
100
AcDbLine
8
3
62
256
370
-1
6
ByLayer
10
1.80196487056
20
-0.389598595354
30
0.0
11
1.30589896329
21
-0.287120508434
31
0.0
0
LINE
5
1460
100
AcDbEntity
100
AcDbLine
8
3
62
256
370
-1
6
ByLayer
10
1.30589896329
20
-0.287120508434
30
0.0
11
0.805427887313
21
-0.180034462878
31
0.0
0
LINE
5
1461
100
AcDbEntity
100
AcDbLine
8
3
62
256
370
-1
6
ByLayer
10
0.805427887313
20
-0.180034462878
30
0.0
11
0.300663912098
21
-0.0683091648675
31
0.0
0
LINE
5
1462
100
AcDbEntity
100
AcDbLine
8
3
62
256
370
-1
6
ByLayer
10
0.300663912098
20
-0.0683091648675
30
0.0
11
-0.208279639862
21
0.0480851437032
31
0.0
0
LINE
5
1463
100
AcDbEntity
100
AcDbLine
8
3
62
256
370
-1
6
ByLayer
10
-0.208279639862
20
0.0480851437032
30
0.0
11
-0.721288423732
21
0.169176672454
31
0.0
0
LINE
5
1464
100
AcDbEntity
100
AcDbLine
8
3
62
256
370
-1
6
ByLayer
10
-0.721288423732
20
0.169176672454
30
0.0
11
-1.2382471033
21
0.294992070245
31
0.0
0
LINE
5
1465
100
AcDbEntity
100
AcDbLine
8
3
62
256
370
-1
6
ByLayer
10
-1.2382471033
20
0.294992070245
30
0.0
11
-1.75903938219
21
0.425556413389
31
0.0
0
LINE
5
1466
100
AcDbEntity
100
AcDbLine
8
3
62
256
370
-1
6
ByLayer
10
-1.75903938219
20
0.425556413389
30
0.0
11
-2.28354803538
21
0.560893194375
31
0.0
0
LINE
5
1467
100
AcDbEntity
100
AcDbLine
8
3
62
256
370
-1
6
ByLayer
10
-2.28354803538
20
0.560893194375
30
0.0
11
-2.81165494086
21
0.701024311089
31
0.0
0
LINE
5
1468
100
AcDbEntity
100
AcDbLine
8
3
62
256
370
-1
6
ByLayer
10
-2.81165494086
20
0.701024311089
30
0.0
11
-3.34324111165
21
0.845970056538
31
0.0
0
LINE
5
1469
100
AcDbEntity
100
AcDbLine
8
3
62
256
370
-1
6
ByLayer
10
-3.34324111165
20
0.845970056538
30
0.0
11
-3.87818672795
21
0.995749109096
31
0.0
0
LINE
5
1470
100
AcDbEntity
100
AcDbLine
8
3
62
256
370
-1
6
ByLayer
10
-3.87818672795
20
0.995749109096
30
0.0
11
-4.41637116957
21
1.15037852325
31
0.0
0
LINE
5
1471
100
AcDbEntity
100
AcDbLine
8
3
62
256
370
-1
6
ByLayer
10
-4.41637116957
20
1.15037852325
30
0.0
11
-4.9576730485
21
1.30987372089
31
0.0
0
LINE
5
1472
100
AcDbEntity
100
AcDbLine
8
3
62
256
370
-1
6
ByLayer
10
-4.9576730485
20
1.30987372089
30
0.0
11
-5.50197024176
21
1.47424848306
31
0.0
0
LINE
5
1473
100
AcDbEntity
100
AcDbLine
8
3
62
256
370
-1
6
ByLayer
10
-5.50197024176
20
1.47424848306
30
0.0
11
-6.04913992434
21
1.64351494232
31
0.0
0
LINE
5
1474
100
AcDbEntity
100
AcDbLine
8
3
62
256
370
-1
6
ByLayer
10
-6.04913992434
20
1.64351494232
30
0.0
11
-6.59905860244
21
1.81768357554
31
0.0
0
LINE
5
1475
100
AcDbEntity
100
AcDbLine
8
3
62
256
370
-1
6
ByLayer
10
-6.59905860244
20
1.81768357554
30
0.0
11
-7.15160214675
21
1.99676319732
31
0.0
0
LINE
5
1476
100
AcDbEntity
100
AcDbLine
8
3
62
256
370
-1
6
ByLayer
10
-7.15160214675
20
1.99676319732
30
0.0
11
-7.70664582599
21
2.18076095382
31
0.0
0
LINE
5
1477
100
AcDbEntity
100
AcDbLine
8
3
62
256
370
-1
6
ByLayer
10
-7.70664582599
20
2.18076095382
30
0.0
11
-8.26406434053
21
2.36968231726
31
0.0
0
LINE
5
1478
100
AcDbEntity
100
AcDbLine
8
3
62
256
370
-1
6
ByLayer
10
-8.26406434053
20
2.36968231726
30
0.0
11
-8.82373185622
21
2.56353108083
31
0.0
0
LINE
5
1479
100
AcDbEntity
100
AcDbLine
8
3
62
256
370
-1
6
ByLayer
10
-8.82373185622
20
2.56353108083
30
0.0
11
-9.38552203825
21
2.76230935422
31
0.0
0
LINE
5
1480
100
AcDbEntity
100
AcDbLine
8
3
62
256
370
-1
6
ByLayer
10
-9.38552203825
20
2.76230935422
30
0.0
11
-9.94930808524
21
2.96601755966
31
0.0
0
LINE
5
1481
100
AcDbEntity
100
AcDbLine
8
3
62
256
370
-1
6
ByLayer
10
-9.94930808524
20
2.96601755966
30
0.0
11
-10.5149627634
21
3.17465442847
31
0.0
0
LINE
5
1482
100
AcDbEntity
100
AcDbLine
8
3
62
256
370
-1
6
ByLayer
10
-10.5149627634
20
3.17465442847
30
0.0
11
-11.0823584406
21
3.38821699821
31
0.0
0
LINE
5
1483
100
AcDbEntity
100
AcDbLine
8
3
62
256
370
-1
6
ByLayer
10
-11.0823584406
20
3.38821699821
30
0.0
11
-11.6513671211
21
3.60670061034
31
0.0
0
LINE
5
1484
100
AcDbEntity
100
AcDbLine
8
3
62
256
370
-1
6
ByLayer
10
-11.6513671211
20
3.60670061034
30
0.0
11
-12.2218604794
21
3.83009890841
31
0.0
0
LINE
5
1485
100
AcDbEntity
100
AcDbLine
8
3
62
256
370
-1
6
ByLayer
10
-12.2218604794
20
3.83009890841
30
0.0
11
-12.7937098954
21
4.0584038368
31
0.0
0
LINE
5
1486
100
AcDbEntity
100
AcDbLine
8
3
62
256
370
-1
6
ByLayer
10
-12.7937098954
20
4.0584038368
30
0.0
11
-13.3667864884
21
4.29160564004
31
0.0
0
LINE
5
1487
100
AcDbEntity
100
AcDbLine
8
3
62
256
370
-1
6
ByLayer
10
-13.3667864884
20
4.29160564004
30
0.0
11
-13.9409611518
21
4.52969286262
31
0.0
0
LINE
5
1488
100
AcDbEntity
100
AcDbLine
8
3
62
256
370
-1
6
ByLayer
10
-13.9409611518
20
4.52969286262
30
0.0
11
-14.5161045879
21
4.77265234941
31
0.0
0
LINE
5
1489
100
AcDbEntity
100
AcDbLine
8
3
62
256
370
-1
6
ByLayer
10
-14.5161045879
20
4.77265234941
30
0.0
11
-15.0920873427
21
5.02046924653
31
0.0
0
LINE
5
1490
100
AcDbEntity
100
AcDbLine
8
3
62
256
370
-1
6
ByLayer
10
-15.0920873427
20
5.02046924653
30
0.0
11
-15.66877984
21
5.27312700289
31
0.0
0
LINE
5
1491
100
AcDbEntity
100
AcDbLine
8
3
62
256
370
-1
6
ByLayer
10
-15.66877984
20
5.27312700289
30
0.0
11
-16.2460524167
21
5.53060737214
31
0.0
0
LINE
5
1492
100
AcDbEntity
100
AcDbLine
8
3
62
256
370
-1
6
ByLayer
10
-16.2460524167
20
5.53060737214
30
0.0
11
-16.8237753573
21
5.7928904153
31
0.0
0
LINE
5
1493
100
AcDbEntity
100
AcDbLine
8
3
62
256
370
-1
6
ByLayer
10
-16.8237753573
20
5.7928904153
30
0.0
11
-17.4018189284
21
6.05995450382
31
0.0
0
LINE
5
1494
100
AcDbEntity
100
AcDbLine
8
3
62
256
370
-1
6
ByLayer
10
-17.4018189284
20
6.05995450382
30
0.0
11
-17.9800534134
21
6.33177632325
31
0.0
0
LINE
5
1495
100
AcDbEntity
100
AcDbLine
8
3
62
256
370
-1
6
ByLayer
10
-17.9800534134
20
6.33177632325
30
0.0
11
-18.5583491476
21
6.60833087741
31
0.0
0
LINE
5
1496
100
AcDbEntity
100
AcDbLine
8
3
62
256
370
-1
6
ByLayer
10
-18.5583491476
20
6.60833087741
30
0.0
11
-19.1365765522
21
6.88959149319
31
0.0
0
LINE
5
1497
100
AcDbEntity
100
AcDbLine
8
3
62
256
370
-1
6
ByLayer
10
-19.1365765522
20
6.88959149319
30
0.0
11
-19.7146061688
21
7.17552982574
31
0.0
0
LINE
5
1498
100
AcDbEntity
100
AcDbLine
8
3
62
256
370
-1
6
ByLayer
10
-19.7146061688
20
7.17552982574
30
0.0
11
-20.2923086947
21
7.46611586434
31
0.0
0
LINE
5
1499
100
AcDbEntity
100
AcDbLine
8
3
62
256
370
-1
6
ByLayer
10
-20.2923086947
20
7.46611586434
30
0.0
11
-20.8695550163
21
7.76131793875
31
0.0
0
LINE
5
1500
100
AcDbEntity
100
AcDbLine
8
3
62
256
370
-1
6
ByLayer
10
-20.8695550163
20
7.76131793875
30
0.0
11
-21.4462162439
21
8.06110272607
31
0.0
0
LINE
5
1501
100
AcDbEntity
100
AcDbLine
8
3
62
256
370
-1
6
ByLayer
10
-21.4462162439
20
8.06110272607
30
0.0
11
-22.0221637462
21
8.36543525818
31
0.0
0
LINE
5
1502
100
AcDbEntity
100
AcDbLine
8
3
62
256
370
-1
6
ByLayer
10
-22.0221637462
20
8.36543525818
30
0.0
11
-22.5972691838
21
8.67427892969
31
0.0
0
LINE
5
1503
100
AcDbEntity
100
AcDbLine
8
3
62
256
370
-1
6
ByLayer
10
-22.5972691838
20
8.67427892969
30
0.0
11
-23.1714045438
21
8.98759550643
31
0.0
0
LINE
5
1504
100
AcDbEntity
100
AcDbLine
8
3
62
256
370
-1
6
ByLayer
10
-23.1714045438
20
8.98759550643
30
0.0
11
-23.7444421732
21
9.30534513446
31
0.0
0
LINE
5
1505
100
AcDbEntity
100
AcDbLine
8
3
62
256
370
-1
6
ByLayer
10
-23.7444421732
20
9.30534513446
30
0.0
11
-24.3162548131
21
9.62748634958
31
0.0
0
LINE
5
1506
100
AcDbEntity
100
AcDbLine
8
3
62
256
370
-1
6
ByLayer
10
-24.3162548131
20
9.62748634958
30
0.0
11
-24.8867156322
21
9.95397608744
31
0.0
0
LINE
5
1507
100
AcDbEntity
100
AcDbLine
8
3
62
256
370
-1
6
ByLayer
10
-24.8867156322
20
9.95397608744
30
0.0
11
-25.4556982601
21
10.284769694
31
0.0
0
LINE
5
1508
100
AcDbEntity
100
AcDbLine
8
3
62
256
370
-1
6
ByLayer
10
-25.4556982601
20
10.284769694
30
0.0
11
-26.0230768209
21
10.6198209369
31
0.0
0
LINE
5
1509
100
AcDbEntity
100
AcDbLine
8
3
62
256
370
-1
6
ByLayer
10
-26.0230768209
20
10.6198209369
30
0.0
11
-26.588725966
21
10.9590820167
31
0.0
0
LINE
5
1510
100
AcDbEntity
100
AcDbLine
8
3
62
256
370
-1
6
ByLayer
10
-26.588725966
20
10.9590820167
30
0.0
11
-27.1525209074
21
11.3025035791
31
0.0
0
LINE
5
1511
100
AcDbEntity
100
AcDbLine
8
3
62
256
370
-1
6
ByLayer
10
-27.1525209074
20
11.3025035791
30
0.0
11
-27.7143374505
21
11.6500347278
31
0.0
0
LINE
5
1512
100
AcDbEntity
100
AcDbLine
8
3
62
256
370
-1
6
ByLayer
10
-27.7143374505
20
11.6500347278
30
0.0
11
-28.2740520264
21
12.0016230374
31
0.0
0
LINE
5
1513
100
AcDbEntity
100
AcDbLine
8
3
62
256
370
-1
6
ByLayer
10
-28.2740520264
20
12.0016230374
30
0.0
11
-28.8315417244
21
12.3572145671
31
0.0
0
LINE
5
1514
100
AcDbEntity
100
AcDbLine
8
3
62
256
370
-1
6
ByLayer
10
-28.8315417244
20
12.3572145671
30
0.0
11
-29.3866843244
21
12.7167538747
31
0.0
0
LINE
5
1515
100
AcDbEntity
100
AcDbLine
8
3
62
256
370
-1
6
ByLayer
10
-29.3866843244
20
12.7167538747
30
0.0
11
-29.9393583283
21
13.0801840313
31
0.0
0
LINE
5
1516
100
AcDbEntity
100
AcDbLine
8
3
62
256
370
-1
6
ByLayer
10
-29.9393583283
20
13.0801840313
30
0.0
11
-30.4894429925
21
13.4474466366
31
0.0
0
LINE
5
1517
100
AcDbEntity
100
AcDbLine
8
3
62
256
370
-1
6
ByLayer
10
-30.4894429925
20
13.4474466366
30
0.0
11
-31.0368183584
21
13.8184818339
31
0.0
0
LINE
5
1518
100
AcDbEntity
100
AcDbLine
8
3
62
256
370
-1
6
ByLayer
10
-31.0368183584
20
13.8184818339
30
0.0
11
-31.5813652845
21
14.1932283268
31
0.0
0
LINE
5
1519
100
AcDbEntity
100
AcDbLine
8
3
62
256
370
-1
6
ByLayer
10
-31.5813652845
20
14.1932283268
30
0.0
11
-32.1229654767
21
14.5716233953
31
0.0
0
LINE
5
1520
100
AcDbEntity
100
AcDbLine
8
3
62
256
370
-1
6
ByLayer
10
-32.1229654767
20
14.5716233953
30
0.0
11
-32.6615015195
21
14.9536029131
31
0.0
0
LINE
5
1521
100
AcDbEntity
100
AcDbLine
8
3
62
256
370
-1
6
ByLayer
10
-32.6615015195
20
14.9536029131
30
0.0
11
-33.1968569058
21
15.3391013647
31
0.0
0
LINE
5
1522
100
AcDbEntity
100
AcDbLine
8
3
62
256
370
-1
6
ByLayer
10
-33.1968569058
20
15.3391013647
30
0.0
11
-33.7289160675
21
15.7280518636
31
0.0
0
LINE
5
1523
100
AcDbEntity
100
AcDbLine
8
3
62
256
370
-1
6
ByLayer
10
-33.7289160675
20
15.7280518636
30
0.0
11
-34.2575644052
21
16.1203861704
31
0.0
0
LINE
5
1524
100
AcDbEntity
100
AcDbLine
8
3
62
256
370
-1
6
ByLayer
10
-34.2575644052
20
16.1203861704
30
0.0
11
-34.7826883174
21
16.516034712
31
0.0
0
LINE
5
1525
100
AcDbEntity
100
AcDbLine
8
3
62
256
370
-1
6
ByLayer
10
-34.7826883174
20
16.516034712
30
0.0
11
-35.3041752302
21
16.9149266006
31
0.0
0
LINE
5
1526
100
AcDbEntity
100
AcDbLine
8
3
62
256
370
-1
6
ByLayer
10
-35.3041752302
20
16.9149266006
30
0.0
11
-35.8219136257
21
17.3169896532
31
0.0
0
LINE
5
1527
100
AcDbEntity
100
AcDbLine
8
3
62
256
370
-1
6
ByLayer
10
-35.8219136257
20
17.3169896532
30
0.0
11
-36.3357930708
21
17.722150412
31
0.0
0
LINE
5
1528
100
AcDbEntity
100
AcDbLine
8
3
62
256
370
-1
6
ByLayer
10
-36.3357930708
20
17.722150412
30
0.0
11
-36.8457042454
21
18.130334165
31
0.0
0
LINE
5
1529
100
AcDbEntity
100
AcDbLine
8
3
62
256
370
-1
6
ByLayer
10
-36.8457042454
20
18.130334165
30
0.0
11
-37.3515389701
21
18.5414649668
31
0.0
0
LINE
5
1530
100
AcDbEntity
100
AcDbLine
8
3
62
256
370
-1
6
ByLayer
10
-37.3515389701
20
18.5414649668
30
0.0
11
-37.8531902338
21
18.9554656597
31
0.0
0
LINE
5
1531
100
AcDbEntity
100
AcDbLine
8
3
62
256
370
-1
6
ByLayer
10
-37.8531902338
20
18.9554656597
30
0.0
11
-38.3505522209
21
19.3722578961
31
0.0
0
LINE
5
1532
100
AcDbEntity
100
AcDbLine
8
3
62
256
370
-1
6
ByLayer
10
-38.3505522209
20
19.3722578961
30
0.0
11
-38.8435203379
21
19.7917621601
31
0.0
0
LINE
5
1533
100
AcDbEntity
100
AcDbLine
8
3
62
256
370
-1
6
ByLayer
10
-38.8435203379
20
19.7917621601
30
0.0
11
-39.3319912399
21
20.2138977904
31
0.0
0
LINE
5
1534
100
AcDbEntity
100
AcDbLine
8
3
62
256
370
-1
6
ByLayer
10
-39.3319912399
20
20.2138977904
30
0.0
11
-39.8158628566
21
20.6385830031
31
0.0
0
LINE
5
1535
100
AcDbEntity
100
AcDbLine
8
3
62
256
370
-1
6
ByLayer
10
-39.8158628566
20
20.6385830031
30
0.0
11
-40.2950344178
21
21.065734915
31
0.0
0
LINE
5
1536
100
AcDbEntity
100
AcDbLine
8
3
62
256
370
-1
6
ByLayer
10
-40.2950344178
20
21.065734915
30
0.0
11
-40.769406479
21
21.4952695673
31
0.0
0
LINE
5
1537
100
AcDbEntity
100
AcDbLine
8
3
62
256
370
-1
6
ByLayer
10
-40.769406479
20
21.4952695673
30
0.0
11
-41.2388809455
21
21.9271019499
31
0.0
0
LINE
5
1538
100
AcDbEntity
100
AcDbLine
8
3
62
256
370
-1
6
ByLayer
10
-41.2388809455
20
21.9271019499
30
0.0
11
-41.7033610975
21
22.3611460253
31
0.0
0
LINE
5
1539
100
AcDbEntity
100
AcDbLine
8
3
62
256
370
-1
6
ByLayer
10
-41.7033610975
20
22.3611460253
30
0.0
11
-42.1627516137
21
22.7973147539
31
0.0
0
LINE
5
1540
100
AcDbEntity
100
AcDbLine
8
3
62
256
370
-1
6
ByLayer
10
-42.1627516137
20
22.7973147539
30
0.0
11
-42.6169585949
21
23.2355201189
31
0.0
0
LINE
5
1541
100
AcDbEntity
100
AcDbLine
8
3
62
256
370
-1
6
ByLayer
10
-42.6169585949
20
23.2355201189
30
0.0
11
-43.0658895872
21
23.6756731514
31
0.0
0
LINE
5
1542
100
AcDbEntity
100
AcDbLine
8
3
62
256
370
-1
6
ByLayer
10
-43.0658895872
20
23.6756731514
30
0.0
11
-43.5094536046
21
24.1176839568
31
0.0
0
LINE
5
1543
100
AcDbEntity
100
AcDbLine
8
3
62
256
370
-1
6
ByLayer
10
-43.5094536046
20
24.1176839568
30
0.0
11
-43.9475611513
21
24.5614617404
31
0.0
0
LINE
5
1544
100
AcDbEntity
100
AcDbLine
8
3
62
256
370
-1
6
ByLayer
10
-43.9475611513
20
24.5614617404
30
0.0
11
-44.3801242431
21
25.0069148339
31
0.0
0
LINE
5
1545
100
AcDbEntity
100
AcDbLine
8
3
62
256
370
-1
6
ByLayer
10
-44.3801242431
20
25.0069148339
30
0.0
11
-44.8070564294
21
25.4539507223
31
0.0
0
LINE
5
1546
100
AcDbEntity
100
AcDbLine
8
3
62
256
370
-1
6
ByLayer
10
-44.8070564294
20
25.4539507223
30
0.0
11
-45.2282728135
21
25.9024760704
31
0.0
0
LINE
5
1547
100
AcDbEntity
100
AcDbLine
8
3
62
256
370
-1
6
ByLayer
10
-45.2282728135
20
25.9024760704
30
0.0
11
-45.6436900732
21
26.3523967506
31
0.0
0
LINE
5
1548
100
AcDbEntity
100
AcDbLine
8
3
62
256
370
-1
6
ByLayer
10
-45.6436900732
20
26.3523967506
30
0.0
11
-46.0532264807
21
26.8036178703
31
0.0
0
LINE
5
1549
100
AcDbEntity
100
AcDbLine
8
3
62
256
370
-1
6
ByLayer
10
-46.0532264807
20
26.8036178703
30
0.0
11
-46.4568019218
21
27.2560437994
31
0.0
0
LINE
5
1550
100
AcDbEntity
100
AcDbLine
8
3
62
256
370
-1
6
ByLayer
10
-46.4568019218
20
27.2560437994
30
0.0
11
-46.8543379153
21
27.709578199
31
0.0
0
LINE
5
1551
100
AcDbEntity
100
AcDbLine
8
3
62
256
370
-1
6
ByLayer
10
-46.8543379153
20
27.709578199
30
0.0
11
-47.2457576309
21
28.164124049
31
0.0
0
LINE
5
1552
100
AcDbEntity
100
AcDbLine
8
3
62
256
370
-1
6
ByLayer
10
-47.2457576309
20
28.164124049
30
0.0
11
-47.6309859075
21
28.6195836773
31
0.0
0
LINE
5
1553
100
AcDbEntity
100
AcDbLine
8
3
62
256
370
-1
6
ByLayer
10
-47.6309859075
20
28.6195836773
30
0.0
11
-48.0099492708
21
29.0758587882
31
0.0
0
LINE
5
1554
100
AcDbEntity
100
AcDbLine
8
3
62
256
370
-1
6
ByLayer
10
-48.0099492708
20
29.0758587882
30
0.0
11
-48.3825759495
21
29.5328504916
31
0.0
0
LINE
5
1555
100
AcDbEntity
100
AcDbLine
8
3
62
256
370
-1
6
ByLayer
10
-48.3825759495
20
29.5328504916
30
0.0
11
-48.7487958927
21
29.9904593325
31
0.0
0
LINE
5
1556
100
AcDbEntity
100
AcDbLine
8
3
62
256
370
-1
6
ByLayer
10
-48.7487958927
20
29.9904593325
30
0.0
11
-49.1085407851
21
30.4485853198
31
0.0
0
LINE
5
1557
100
AcDbEntity
100
AcDbLine
8
3
62
256
370
-1
6
ByLayer
10
-49.1085407851
20
30.4485853198
30
0.0
11
-49.4617440626
21
30.9071279567
31
0.0
0
LINE
5
1558
100
AcDbEntity
100
AcDbLine
8
3
62
256
370
-1
6
ByLayer
10
-49.4617440626
20
30.9071279567
30
0.0
11
-49.8083409274
21
31.3659862702
31
0.0
0
LINE
5
1559
100
AcDbEntity
100
AcDbLine
8
3
62
256
370
-1
6
ByLayer
10
-49.8083409274
20
31.3659862702
30
0.0
11
-50.148268362
21
31.825058841
31
0.0
0
LINE
5
1560
100
AcDbEntity
100
AcDbLine
8
3
62
256
370
-1
6
ByLayer
10
-50.148268362
20
31.825058841
30
0.0
11
-50.4814651432
21
32.284243834
31
0.0
0
LINE
5
1561
100
AcDbEntity
100
AcDbLine
8
3
62
256
370
-1
6
ByLayer
10
-50.4814651432
20
32.284243834
30
0.0
11
-50.8078718552
21
32.7434390285
31
0.0
0
LINE
5
1562
100
AcDbEntity
100
AcDbLine
8
3
62
256
370
-1
6
ByLayer
10
-50.8078718552
20
32.7434390285
30
0.0
11
-51.1274309028
21
33.202541849
31
0.0
0
LINE
5
1563
100
AcDbEntity
100
AcDbLine
8
3
62
256
370
-1
6
ByLayer
10
-51.1274309028
20
33.202541849
30
0.0
11
-51.4400865229
21
33.6614493952
31
0.0
0
LINE
5
1564
100
AcDbEntity
100
AcDbLine
8
3
62
256
370
-1
6
ByLayer
10
-51.4400865229
20
33.6614493952
30
0.0
11
-51.7457847966
21
34.1200584736
31
0.0
0
LINE
5
1565
100
AcDbEntity
100
AcDbLine
8
3
62
256
370
-1
6
ByLayer
10
-51.7457847966
20
34.1200584736
30
0.0
11
-52.0444736604
21
34.578265628
31
0.0
0
LINE
5
1566
100
AcDbEntity
100
AcDbLine
8
3
62
256
370
-1
6
ByLayer
10
-52.0444736604
20
34.578265628
30
0.0
11
-52.3361029164
21
35.0359671706
31
0.0
0
LINE
5
1567
100
AcDbEntity
100
AcDbLine
8
3
62
256
370
-1
6
ByLayer
10
-52.3361029164
20
35.0359671706
30
0.0
11
-52.6206242426
21
35.4930592132
31
0.0
0
LINE
5
1568
100
AcDbEntity
100
AcDbLine
8
3
62
256
370
-1
6
ByLayer
10
-52.6206242426
20
35.4930592132
30
0.0
11
-52.897991202
21
35.9494376984
31
0.0
0
LINE
5
1569
100
AcDbEntity
100
AcDbLine
8
3
62
256
370
-1
6
ByLayer
10
-52.897991202
20
35.9494376984
30
0.0
11
-53.1681592518
21
36.4049984309
31
0.0
0
LINE
5
1570
100
AcDbEntity
100
AcDbLine
8
3
62
256
370
-1
6
ByLayer
10
-53.1681592518
20
36.4049984309
30
0.0
11
-53.4310857518
21
36.8596371092
31
0.0
0
LINE
5
1571
100
AcDbEntity
100
AcDbLine
8
3
62
256
370
-1
6
ByLayer
10
-53.4310857518
20
36.8596371092
30
0.0
11
-53.6867299716
21
37.3132493566
31
0.0
0
LINE
5
1572
100
AcDbEntity
100
AcDbLine
8
3
62
256
370
-1
6
ByLayer
10
-53.6867299716
20
37.3132493566
30
0.0
11
-53.9350530985
21
37.7657307533
31
0.0
0
LINE
5
1573
100
AcDbEntity
100
AcDbLine
8
3
62
256
370
-1
6
ByLayer
10
-53.9350530985
20
37.7657307533
30
0.0
11
-54.1760182437
21
38.2169768675
31
0.0
0
LINE
5
1574
100
AcDbEntity
100
AcDbLine
8
3
62
256
370
-1
6
ByLayer
10
-54.1760182437
20
38.2169768675
30
0.0
11
-54.4095904484
21
38.6668832873
31
0.0
0
LINE
5
1575
100
AcDbEntity
100
AcDbLine
8
3
62
256
370
-1
6
ByLayer
10
-54.4095904484
20
38.6668832873
30
0.0
11
-54.6357366895
21
39.1153456522
31
0.0
0
LINE
5
1576
100
AcDbEntity
100
AcDbLine
8
3
62
256
370
-1
6
ByLayer
10
-54.6357366895
20
39.1153456522
30
0.0
11
-54.8544258843
21
39.5622596851
31
0.0
0
LINE
5
1577
100
AcDbEntity
100
AcDbLine
8
3
62
256
370
-1
6
ByLayer
10
-54.8544258843
20
39.5622596851
30
0.0
11
-55.0656288951
21
40.0075212236
31
0.0
0
LINE
5
1578
100
AcDbEntity
100
AcDbLine
8
3
62
256
370
-1
6
ByLayer
10
-55.0656288951
20
40.0075212236
30
0.0
11
-55.2693185326
21
40.451026252
31
0.0
0
LINE
5
1579
100
AcDbEntity
100
AcDbLine
8
3
62
256
370
-1
6
ByLayer
10
-55.2693185326
20
40.451026252
30
0.0
11
-55.4654695596
21
40.8926709326
31
0.0
0
LINE
5
1580
100
AcDbEntity
100
AcDbLine
8
3
62
256
370
-1
6
ByLayer
10
-55.4654695596
20
40.8926709326
30
0.0
11
-55.6540586932
21
41.3323516379
31
0.0
0
LINE
5
1581
100
AcDbEntity
100
AcDbLine
8
3
62
256
370
-1
6
ByLayer
10
-55.6540586932
20
41.3323516379
30
0.0
11
-55.8350646072
21
41.7699649818
31
0.0
0
LINE
5
1582
100
AcDbEntity
100
AcDbLine
8
3
62
256
370
-1
6
ByLayer
10
-55.8350646072
20
41.7699649818
30
0.0
11
-56.0084679335
21
42.2054078514
31
0.0
0
LINE
5
1583
100
AcDbEntity
100
AcDbLine
8
3
62
256
370
-1
6
ByLayer
10
-56.0084679335
20
42.2054078514
30
0.0
11
-56.174251263
21
42.6385774384
31
0.0
0
LINE
5
1584
100
AcDbEntity
100
AcDbLine
8
3
62
256
370
-1
6
ByLayer
10
-56.174251263
20
42.6385774384
30
0.0
11
-56.3323991456
21
43.0693712707
31
0.0
0
LINE
5
1585
100
AcDbEntity
100
AcDbLine
8
3
62
256
370
-1
6
ByLayer
10
-56.3323991456
20
43.0693712707
30
0.0
11
-56.4828980909
21
43.497687244
31
0.0
0
LINE
5
1586
100
AcDbEntity
100
AcDbLine
8
3
62
256
370
-1
6
ByLayer
10
-56.4828980909
20
43.497687244
30
0.0
11
-56.6257365664
21
43.9234236527
31
0.0
0
LINE
5
1587
100
AcDbEntity
100
AcDbLine
8
3
62
256
370
-1
6
ByLayer
10
-56.6257365664
20
43.9234236527
30
0.0
11
-56.7609049968
21
44.3464792215
31
0.0
0
LINE
5
1588
100
AcDbEntity
100
AcDbLine
8
3
62
256
370
-1
6
ByLayer
10
-56.7609049968
20
44.3464792215
30
0.0
11
-56.8883957617
21
44.7667531366
31
0.0
0
LINE
5
1589
100
AcDbEntity
100
AcDbLine
8
3
62
256
370
-1
6
ByLayer
10
-56.8883957617
20
44.7667531366
30
0.0
11
-57.0082031934
21
45.1841450764
31
0.0
0
LINE
5
1590
100
AcDbEntity
100
AcDbLine
8
3
62
256
370
-1
6
ByLayer
10
-57.0082031934
20
45.1841450764
30
0.0
11
-57.1203235737
21
45.5985552429
31
0.0
0
LINE
5
1591
100
AcDbEntity
100
AcDbLine
8
3
62
256
370
-1
6
ByLayer
10
-57.1203235737
20
45.5985552429
30
0.0
11
-57.22475513
21
46.0098843921
31
0.0
0
LINE
5
1592
100
AcDbEntity
100
AcDbLine
8
3
62
256
370
-1
6
ByLayer
10
-57.22475513
20
46.0098843921
30
0.0
11
-57.3214980318
21
46.418033865
31
0.0
0
LINE
5
1593
100
AcDbEntity
100
AcDbLine
8
3
62
256
370
-1
6
ByLayer
10
-57.3214980318
20
46.418033865
30
0.0
11
-57.4105543852
21
46.8229056179
31
0.0
0
LINE
5
1594
100
AcDbEntity
100
AcDbLine
8
3
62
256
370
-1
6
ByLayer
10
-57.4105543852
20
46.8229056179
30
0.0
11
-57.491928228
21
47.2244022529
31
0.0
0
LINE
5
1595
100
AcDbEntity
100
AcDbLine
8
3
62
256
370
-1
6
ByLayer
10
-57.491928228
20
47.2244022529
30
0.0
11
-57.5656255238
21
47.6224270482
31
0.0
0
LINE
5
1596
100
AcDbEntity
100
AcDbLine
8
3
62
256
370
-1
6
ByLayer
10
-57.5656255238
20
47.6224270482
30
0.0
11
-57.6316541553
21
48.0168839878
31
0.0
0
LINE
5
1597
100
AcDbEntity
100
AcDbLine
8
3
62
256
370
-1
6
ByLayer
10
-57.6316541553
20
48.0168839878
30
0.0
11
-57.6900239178
21
48.407677792
31
0.0
0
LINE
5
1598
100
AcDbEntity
100
AcDbLine
8
3
62
256
370
-1
6
ByLayer
10
-57.6900239178
20
48.407677792
30
0.0
11
-57.7407465112
21
48.7947139463
31
0.0
0
LINE
5
1599
100
AcDbEntity
100
AcDbLine
8
3
62
256
370
-1
6
ByLayer
10
-57.7407465112
20
48.7947139463
30
0.0
11
-57.7838355323
21
49.1778987315
31
0.0
0
LINE
5
1600
100
AcDbEntity
100
AcDbLine
8
3
62
256
370
-1
6
ByLayer
10
-57.7838355323
20
49.1778987315
30
0.0
11
-57.8193064658
21
49.5571392526
31
0.0
0
LINE
5
1601
100
AcDbEntity
100
AcDbLine
8
3
62
256
370
-1
6
ByLayer
10
-57.8193064658
20
49.5571392526
30
0.0
11
-57.8471766754
21
49.932343468
31
0.0
0
LINE
5
1602
100
AcDbEntity
100
AcDbLine
8
3
62
256
370
-1
6
ByLayer
10
-57.8471766754
20
49.932343468
30
0.0
11
-57.8674653943
21
50.3034202183
31
0.0
0
LINE
5
1603
100
AcDbEntity
100
AcDbLine
8
3
62
256
370
-1
6
ByLayer
10
-57.8674653943
20
50.3034202183
30
0.0
11
-57.8801937142
21
50.6702792547
31
0.0
0
LINE
5
1604
100
AcDbEntity
100
AcDbLine
8
3
62
256
370
-1
6
ByLayer
10
-57.8801937142
20
50.6702792547
30
0.0
11
-57.8853845754
21
51.0328312678
31
0.0
0
LINE
5
1605
100
AcDbEntity
100
AcDbLine
8
3
62
256
370
-1
6
ByLayer
10
-57.8853845754
20
51.0328312678
30
0.0
11
-57.8830627551
21
51.390987915
31
0.0
0
LINE
5
1606
100
AcDbEntity
100
AcDbLine
8
3
62
256
370
-1
6
ByLayer
10
-57.8830627551
20
51.390987915
30
0.0
11
-57.8732548555
21
51.7446618491
31
0.0
0
LINE
5
1607
100
AcDbEntity
100
AcDbLine
8
3
62
256
370
-1
6
ByLayer
10
-57.8732548555
20
51.7446618491
30
0.0
11
-57.8559892917
21
52.0937667451
31
0.0
0
LINE
5
1608
100
AcDbEntity
100
AcDbLine
8
3
62
256
370
-1
6
ByLayer
10
-57.8559892917
20
52.0937667451
30
0.0
11
-57.8312962787
21
52.4382173279
31
0.0
0
LINE
5
1609
100
AcDbEntity
100
AcDbLine
8
3
62
256
370
-1
6
ByLayer
10
-57.8312962787
20
52.4382173279
30
0.0
11
-57.799207818
21
52.7779293993
31
0.0
0
LINE
5
1610
100
AcDbEntity
100
AcDbLine
8
3
62
256
370
-1
6
ByLayer
10
-57.799207818
20
52.7779293993
30
0.0
11
-57.759757684
21
53.1128198645
31
0.0
0
LINE
5
1611
100
AcDbEntity
100
AcDbLine
8
3
62
256
370
-1
6
ByLayer
10
-57.759757684
20
53.1128198645
30
0.0
11
-57.7129814092
21
53.4428067584
31
0.0
0
LINE
5
1612
100
AcDbEntity
100
AcDbLine
8
3
62
256
370
-1
6
ByLayer
10
-57.7129814092
20
53.4428067584
30
0.0
11
-57.6589162697
21
53.7678092719
31
0.0
0
LINE
5
1613
100
AcDbEntity
100
AcDbLine
8
3
62
256
370
-1
6
ByLayer
10
-57.6589162697
20
53.7678092719
30
0.0
11
-57.5976012699
21
54.0877477776
31
0.0
0
LINE
5
1614
100
AcDbEntity
100
AcDbLine
8
3
62
256
370
-1
6
ByLayer
10
-57.5976012699
20
54.0877477776
30
0.0
11
-57.5290771261
21
54.402543855
31
0.0
0
LINE
5
1615
100
AcDbEntity
100
AcDbLine
8
3
62
256
370
-1
6
ByLayer
10
-57.5290771261
20
54.402543855
30
0.0
11
-57.4533862508
21
54.7121203159
31
0.0
0
LINE
5
1616
100
AcDbEntity
100
AcDbLine
8
3
62
256
370
-1
6
ByLayer
10
-57.4533862508
20
54.7121203159
30
0.0
11
-57.3705727356
21
55.0164012287
31
0.0
0
LINE
5
1617
100
AcDbEntity
100
AcDbLine
8
3
62
256
370
-1
6
ByLayer
10
-57.3705727356
20
55.0164012287
30
0.0
11
-57.280682334
21
55.3153119432
31
0.0
0
LINE
5
1618
100
AcDbEntity
100
AcDbLine
8
3
62
256
370
-1
6
ByLayer
10
-57.280682334
20
55.3153119432
30
0.0
11
-57.1837624436
21
55.6087791144
31
0.0
0
LINE
5
1619
100
AcDbEntity
100
AcDbLine
8
3
62
256
370
-1
6
ByLayer
10
-57.1837624436
20
55.6087791144
30
0.0
11
-57.079862088
21
55.896730726
31
0.0
0
LINE
5
1620
100
AcDbEntity
100
AcDbLine
8
3
62
256
370
-1
6
ByLayer
10
-57.079862088
20
55.896730726
30
0.0
11
-56.9690318982
21
56.1790961141
31
0.0
0
LINE
5
1621
100
AcDbEntity
100
AcDbLine
8
3
62
256
370
-1
6
ByLayer
10
-56.9690318982
20
56.1790961141
30
0.0
11
-56.8513240933
21
56.4558059897
31
0.0
0
LINE
5
1622
100
AcDbEntity
100
AcDbLine
8
3
62
256
370
-1
6
ByLayer
10
-56.8513240933
20
56.4558059897
30
0.0
11
-56.7267924611
21
56.7267924611
31
0.0
0
LINE
5
1623
100
AcDbEntity
100
AcDbLine
8
3
62
256
370
-1
6
ByLayer
10
-56.7267924611
20
56.7267924611
30
0.0
11
-56.5954923382
21
56.9919890565
31
0.0
0
LINE
5
1624
100
AcDbEntity
100
AcDbLine
8
3
62
256
370
-1
6
ByLayer
10
-56.5954923382
20
56.9919890565
30
0.0
11
-56.4574805895
21
57.2513307452
31
0.0
0
LINE
5
1625
100
AcDbEntity
100
AcDbLine
8
3
62
256
370
-1
6
ByLayer
10
-56.4574805895
20
57.2513307452
30
0.0
11
-56.3128155875
21
57.5047539592
31
0.0
0
LINE
5
1626
100
AcDbEntity
100
AcDbLine
8
3
62
256
370
-1
6
ByLayer
10
-56.3128155875
20
57.5047539592
30
0.0
11
-56.161557191
21
57.7521966139
31
0.0
0
LINE
5
1627
100
AcDbEntity
100
AcDbLine
8
3
62
256
370
-1
6
ByLayer
10
-56.161557191
20
57.7521966139
30
0.0
11
-56.0037667233
21
57.9935981284
31
0.0
0
LINE
5
1628
100
AcDbEntity
100
AcDbLine
8
3
62
256
370
-1
6
ByLayer
10
-56.0037667233
20
57.9935981284
30
0.0
11
-55.8395069505
21
58.2288994459
31
0.0
0
LINE
5
1629
100
AcDbEntity
100
AcDbLine
8
3
62
256
370
-1
6
ByLayer
10
-55.8395069505
20
58.2288994459
30
0.0
11
-55.6688420589
21
58.458043053
31
0.0
0
LINE
5
1630
100
AcDbEntity
100
AcDbLine
8
3
62
256
370
-1
6
ByLayer
10
-55.6688420589
20
58.458043053
30
0.0
11
-55.4918376323
21
58.6809729987
31
0.0
0
LINE
5
1631
100
AcDbEntity
100
AcDbLine
8
3
62
256
370
-1
6
ByLayer
10
-55.4918376323
20
58.6809729987
30
0.0
11
-55.3085606284
21
58.8976349133
31
0.0
0
LINE
5
1632
100
AcDbEntity
100
AcDbLine
8
3
62
256
370
-1
6
ByLayer
10
-55.3085606284
20
58.8976349133
30
0.0
11
-55.1190793559
21
59.1079760267
31
0.0
0
LINE
5
1633
100
AcDbEntity
100
AcDbLine
8
3
62
256
370
-1
6
ByLayer
10
-55.1190793559
20
59.1079760267
30
0.0
11
-54.9234634501
21
59.3119451858
31
0.0
0
LINE
5
1634
100
AcDbEntity
100
AcDbLine
8
3
62
256
370
-1
6
ByLayer
10
-54.9234634501
20
59.3119451858
30
0.0
11
-54.7217838488
21
59.5094928721
31
0.0
0
LINE
5
1635
100
AcDbEntity
100
AcDbLine
8
3
62
256
370
-1
6
ByLayer
10
-54.7217838488
20
59.5094928721
30
0.0
11
-54.5141127675
21
59.7005712183
31
0.0
0
LINE
5
1636
100
AcDbEntity
100
AcDbLine
8
3
62
256
370
-1
6
ByLayer
10
-54.5141127675
20
59.7005712183
30
0.0
11
-54.3005236747
21
59.885134025
31
0.0
0
LINE
5
1637
100
AcDbEntity
100
AcDbLine
8
3
62
256
370
-1
6
ByLayer
10
-54.3005236747
20
59.885134025
30
0.0
11
-54.0810912664
21
60.0631367761
31
0.0
0
LINE
5
1638
100
AcDbEntity
100
AcDbLine
8
3
62
256
370
-1
6
ByLayer
10
-54.0810912664
20
60.0631367761
30
0.0
11
-53.8558914406
21
60.2345366542
31
0.0
0
LINE
5
1639
100
AcDbEntity
100
AcDbLine
8
3
62
256
370
-1
6
ByLayer
10
-53.8558914406
20
60.2345366542
30
0.0
11
-53.6250012712
21
60.3992925561
31
0.0
0
LINE
5
1640
100
AcDbEntity
100
AcDbLine
8
3
62
256
370
-1
6
ByLayer
10
-53.6250012712
20
60.3992925561
30
0.0
11
-53.3884989821
21
60.5573651062
31
0.0
0
LINE
5
1641
100
AcDbEntity
100
AcDbLine
8
3
62
256
370
-1
6
ByLayer
10
-53.3884989821
20
60.5573651062
30
0.0
11
-53.1464639202
21
60.7087166712
31
0.0
0
LINE
5
1642
100
AcDbEntity
100
AcDbLine
8
3
62
256
370
-1
6
ByLayer
10
-53.1464639202
20
60.7087166712
30
0.0
11
-52.8989765288
21
60.8533113731
31
0.0
0
LINE
5
1643
100
AcDbEntity
100
AcDbLine
8
3
62
256
370
-1
6
ByLayer
10
-52.8989765288
20
60.8533113731
30
0.0
11
-52.6461183206
21
60.9911151019
31
0.0
0
LINE
5
1644
100
AcDbEntity
100
AcDbLine
8
3
62
256
370
-1
6
ByLayer
10
-52.6461183206
20
60.9911151019
30
0.0
11
-52.38797185
21
61.1220955284
31
0.0
0
LINE
5
1645
100
AcDbEntity
100
AcDbLine
8
3
62
256
370
-1
6
ByLayer
10
-52.38797185
20
61.1220955284
30
0.0
11
-52.1246206858
21
61.2462221156
31
0.0
0
LINE
5
1646
100
AcDbEntity
100
AcDbLine
8
3
62
256
370
-1
6
ByLayer
10
-52.1246206858
20
61.2462221156
30
0.0
11
-51.8561493829
21
61.3634661299
31
0.0
0
LINE
5
1647
100
AcDbEntity
100
AcDbLine
8
3
62
256
370
-1
6
ByLayer
10
-51.8561493829
20
61.3634661299
30
0.0
11
-51.5826434547
21
61.4738006526
31
0.0
0
LINE
5
1648
100
AcDbEntity
100
AcDbLine
8
3
62
256
370
-1
6
ByLayer
10
-51.5826434547
20
61.4738006526
30
0.0
11
-51.3041893439
21
61.5772005891
31
0.0
0
LINE
5
1649
100
AcDbEntity
100
AcDbLine
8
3
62
256
370
-1
6
ByLayer
10
-51.3041893439
20
61.5772005891
30
0.0
11
-51.0208743947
21
61.6736426795
31
0.0
0
LINE
5
1650
100
AcDbEntity
100
AcDbLine
8
3
62
256
370
-1
6
ByLayer
10
-51.0208743947
20
61.6736426795
30
0.0
11
-50.7327868234
21
61.7631055072
31
0.0
0
LINE
5
1651
100
AcDbEntity
100
AcDbLine
8
3
62
256
370
-1
6
ByLayer
10
-50.7327868234
20
61.7631055072
30
0.0
11
-50.4400156896
21
61.8455695077
31
0.0
0
LINE
5
1652
100
AcDbEntity
100
AcDbLine
8
3
62
256
370
-1
6
ByLayer
10
-50.4400156896
20
61.8455695077
30
0.0
11
-50.1426508668
21
61.9210169765
31
0.0
0
LINE
5
1653
100
AcDbEntity
100
AcDbLine
8
3
62
256
370
-1
6
ByLayer
10
-50.1426508668
20
61.9210169765
30
0.0
11
-49.840783013
21
61.9894320772
31
0.0
0
LINE
5
1654
100
AcDbEntity
100
AcDbLine
8
3
62
256
370
-1
6
ByLayer
10
-49.840783013
20
61.9894320772
30
0.0
11
-49.534503541
21
62.0508008478
31
0.0
0
LINE
5
1655
100
AcDbEntity
100
AcDbLine
8
3
62
256
370
-1
6
ByLayer
10
-49.534503541
20
62.0508008478
30
0.0
11
-49.2239045889
21
62.1051112073
31
0.0
0
LINE
5
1656
100
AcDbEntity
100
AcDbLine
8
3
62
256
370
-1
6
ByLayer
10
-49.2239045889
20
62.1051112073
30
0.0
11
-48.9090789895
21
62.1523529618
31
0.0
0
LINE
5
1657
100
AcDbEntity
100
AcDbLine
8
3
62
256
370
-1
6
ByLayer
10
-48.9090789895
20
62.1523529618
30
0.0
11
-48.590120241
21
62.1925178097
31
0.0
0
LINE
5
1658
100
AcDbEntity
100
AcDbLine
8
3
62
256
370
-1
6
ByLayer
10
-48.590120241
20
62.1925178097
30
0.0
11
-48.2671224757
21
62.2255993463
31
0.0
0
LINE
5
1659
100
AcDbEntity
100
AcDbLine
8
3
62
256
370
-1
6
ByLayer
10
-48.2671224757
20
62.2255993463
30
0.0
11
-47.9401804307
21
62.2515930684
31
0.0
0
LINE
5
1660
100
AcDbEntity
100
AcDbLine
8
3
62
256
370
-1
6
ByLayer
10
-47.9401804307
20
62.2515930684
30
0.0
11
-47.6093894164
21
62.2704963772
31
0.0
0
LINE
5
1661
100
AcDbEntity
100
AcDbLine
8
3
62
256
370
-1
6
ByLayer
10
-47.6093894164
20
62.2704963772
30
0.0
11
-47.2748452863
21
62.2823085824
31
0.0
0
LINE
5
1662
100
AcDbEntity
100
AcDbLine
8
3
62
256
370
-1
6
ByLayer
10
-47.2748452863
20
62.2823085824
30
0.0
11
-46.9366444063
21
62.2870309036
31
0.0
0
LINE
5
1663
100
AcDbEntity
100
AcDbLine
8
3
62
256
370
-1
6
ByLayer
10
-46.9366444063
20
62.2870309036
30
0.0
11
-46.5948836236
21
62.2846664732
31
0.0
0
LINE
5
1664
100
AcDbEntity
100
AcDbLine
8
3
62
256
370
-1
6
ByLayer
10
-46.5948836236
20
62.2846664732
30
0.0
11
-46.2496602358
21
62.2752203371
31
0.0
0
LINE
5
1665
100
AcDbEntity
100
AcDbLine
8
3
62
256
370
-1
6
ByLayer
10
-46.2496602358
20
62.2752203371
30
0.0
11
-45.9010719598
21
62.2586994558
31
0.0
0
LINE
5
1666
100
AcDbEntity
100
AcDbLine
8
3
62
256
370
-1
6
ByLayer
10
-45.9010719598
20
62.2586994558
30
0.0
11
-45.5492169011
21
62.2351127048
31
0.0
0
LINE
5
1667
100
AcDbEntity
100
AcDbLine
8
3
62
256
370
-1
6
ByLayer
10
-45.5492169011
20
62.2351127048
30
0.0
11
-45.1941935219
21
62.2044708739
31
0.0
0
LINE
5
1668
100
AcDbEntity
100
AcDbLine
8
3
62
256
370
-1
6
ByLayer
10
-45.1941935219
20
62.2044708739
30
0.0
11
-44.8361006106
21
62.1667866665
31
0.0
0
LINE
5
1669
100
AcDbEntity
100
AcDbLine
8
3
62
256
370
-1
6
ByLayer
10
-44.8361006106
20
62.1667866665
30
0.0
11
-44.4750372501
21
62.1220746982
31
0.0
0
LINE
5
1670
100
AcDbEntity
100
AcDbLine
8
3
62
256
370
-1
6
ByLayer
10
-44.4750372501
20
62.1220746982
30
0.0
11
-44.1111027865
21
62.0703514946
31
0.0
0
LINE
5
1671
100
AcDbEntity
100
AcDbLine
8
3
62
256
370
-1
6
ByLayer
10
-44.1111027865
20
62.0703514946
30
0.0
11
-43.7443967982
21
62.0116354889
31
0.0
0
LINE
5
1672
100
AcDbEntity
100
AcDbLine
8
3
62
256
370
-1
6
ByLayer
10
-43.7443967982
20
62.0116354889
30
0.0
11
-43.375019064
21
61.9459470186
31
0.0
0
LINE
5
1673
100
AcDbEntity
100
AcDbLine
8
3
62
256
370
-1
6
ByLayer
10
-43.375019064
20
61.9459470186
30
0.0
11
-43.0030695323
21
61.8733083218
31
0.0
0
LINE
5
1674
100
AcDbEntity
100
AcDbLine
8
3
62
256
370
-1
6
ByLayer
10
-43.0030695323
20
61.8733083218
30
0.0
11
-42.6286482894
21
61.7937435328
31
0.0
0
LINE
5
1675
100
AcDbEntity
100
AcDbLine
8
3
62
256
370
-1
6
ByLayer
10
-42.6286482894
20
61.7937435328
30
0.0
11
-42.2518555285
21
61.7072786774
31
0.0
0
LINE
5
1676
100
AcDbEntity
100
AcDbLine
8
3
62
256
370
-1
6
ByLayer
10
-42.2518555285
20
61.7072786774
30
0.0
11
-41.8727915181
21
61.6139416675
31
0.0
0
LINE
5
1677
100
AcDbEntity
100
AcDbLine
8
3
62
256
370
-1
6
ByLayer
10
-41.8727915181
20
61.6139416675
30
0.0
11
-41.4915565709
21
61.5137622949
31
0.0
0
LINE
5
1678
100
AcDbEntity
100
AcDbLine
8
3
62
256
370
-1
6
ByLayer
10
-41.4915565709
20
61.5137622949
30
0.0
11
-41.1082510128
21
61.4067722248
31
0.0
0
LINE
5
1679
100
AcDbEntity
100
AcDbLine
8
3
62
256
370
-1
6
ByLayer
10
-41.1082510128
20
61.4067722248
30
0.0
11
-40.7229751516
21
61.2930049891
31
0.0
0
LINE
5
1680
100
AcDbEntity
100
AcDbLine
8
3
62
256
370
-1
6
ByLayer
10
-40.7229751516
20
61.2930049891
30
0.0
11
-40.3358292457
21
61.1724959778
31
0.0
0
LINE
5
1681
100
AcDbEntity
100
AcDbLine
8
3
62
256
370
-1
6
ByLayer
10
-40.3358292457
20
61.1724959778
30
0.0
11
-39.9469134735
21
61.045282432
31
0.0
0
LINE
5
1682
100
AcDbEntity
100
AcDbLine
8
3
62
256
370
-1
6
ByLayer
10
-39.9469134735
20
61.045282432
30
0.0
11
-39.5563279024
21
60.911403434
31
0.0
0
LINE
5
1683
100
AcDbEntity
100
AcDbLine
8
3
62
256
370
-1
6
ByLayer
10
-39.5563279024
20
60.911403434
30
0.0
11
-39.1641724576
21
60.7708998987
31
0.0
0
LINE
5
1684
100
AcDbEntity
100
AcDbLine
8
3
62
256
370
-1
6
ByLayer
10
-39.1641724576
20
60.7708998987
30
0.0
11
-38.770546892
21
60.6238145634
31
0.0
0
LINE
5
1685
100
AcDbEntity
100
AcDbLine
8
3
62
256
370
-1
6
ByLayer
10
-38.770546892
20
60.6238145634
30
0.0
11
-38.3755507551
21
60.4701919775
31
0.0
0
LINE
5
1686
100
AcDbEntity
100
AcDbLine
8
3
62
256
370
-1
6
ByLayer
10
-38.3755507551
20
60.4701919775
30
0.0
11
-37.9792833628
21
60.3100784914
31
0.0
0
LINE
5
1687
100
AcDbEntity
100
AcDbLine
8
3
62
256
370
-1
6
ByLayer
10
-37.9792833628
20
60.3100784914
30
0.0
11
-37.5818437669
21
60.1435222453
31
0.0
0
LINE
5
1688
100
AcDbEntity
100
AcDbLine
8
3
62
256
370
-1
6
ByLayer
10
-37.5818437669
20
60.1435222453
30
0.0
11
-37.183330725
21
59.9705731566
31
0.0
0
LINE
5
1689
100
AcDbEntity
100
AcDbLine
8
3
62
256
370
-1
6
ByLayer
10
-37.183330725
20
59.9705731566
30
0.0
11
-36.7838426704
21
59.791282908
31
0.0
0
LINE
5
1690
100
AcDbEntity
100
AcDbLine
8
3
62
256
370
-1
6
ByLayer
10
-36.7838426704
20
59.791282908
30
0.0
11
-36.383477682
21
59.6057049338
31
0.0
0
LINE
5
1691
100
AcDbEntity
100
AcDbLine
8
3
62
256
370
-1
6
ByLayer
10
-36.383477682
20
59.6057049338
30
0.0
11
-35.9823334551
21
59.4138944067
31
0.0
0
LINE
5
1692
100
AcDbEntity
100
AcDbLine
8
3
62
256
370
-1
6
ByLayer
10
-35.9823334551
20
59.4138944067
30
0.0
11
-35.5805072714
21
59.2159082234
31
0.0
0
LINE
5
1693
100
AcDbEntity
100
AcDbLine
8
3
62
256
370
-1
6
ByLayer
10
-35.5805072714
20
59.2159082234
30
0.0
11
-35.1780959696
21
59.0118049899
31
0.0
0
LINE
5
1694
100
AcDbEntity
100
AcDbLine
8
3
62
256
370
-1
6
ByLayer
10
-35.1780959696
20
59.0118049899
30
0.0
11
-34.7751959165
21
58.8016450067
31
0.0
0
LINE
5
1695
100
AcDbEntity
100
AcDbLine
8
3
62
256
370
-1
6
ByLayer
10
-34.7751959165
20
58.8016450067
30
0.0
11
-34.3719029782
21
58.5854902524
31
0.0
0
LINE
5
1696
100
AcDbEntity
100
AcDbLine
8
3
62
256
370
-1
6
ByLayer
10
-34.3719029782
20
58.5854902524
30
0.0
11
-33.9683124906
21
58.3634043683
31
0.0
0
LINE
5
1697
100
AcDbEntity
100
AcDbLine
8
3
62
256
370
-1
6
ByLayer
10
-33.9683124906
20
58.3634043683
30
0.0
11
-33.5645192317
21
58.1354526409
31
0.0
0
LINE
5
1698
100
AcDbEntity
100
AcDbLine
8
3
62
256
370
-1
6
ByLayer
10
-33.5645192317
20
58.1354526409
30
0.0
11
-33.1606173929
21
57.9017019854
31
0.0
0
LINE
5
1699
100
AcDbEntity
100
AcDbLine
8
3
62
256
370
-1
6
ByLayer
10
-33.1606173929
20
57.9017019854
30
0.0
11
-32.7567005509
21
57.6622209275
31
0.0
0
LINE
5
1700
100
AcDbEntity
100
AcDbLine
8
3
62
256
370
-1
6
ByLayer
10
-32.7567005509
20
57.6622209275
30
0.0
11
-32.3528616401
21
57.4170795855
31
0.0
0
LINE
5
1701
100
AcDbEntity
100
AcDbLine
8
3
62
256
370
-1
6
ByLayer
10
-32.3528616401
20
57.4170795855
30
0.0
11
-31.949192925
21
57.1663496515
31
0.0
0
LINE
5
1702
100
AcDbEntity
100
AcDbLine
8
3
62
256
370
-1
6
ByLayer
10
-31.949192925
20
57.1663496515
30
0.0
11
-31.5457859727
21
56.9101043724
31
0.0
0
LINE
5
1703
100
AcDbEntity
100
AcDbLine
8
3
62
256
370
-1
6
ByLayer
10
-31.5457859727
20
56.9101043724
30
0.0
11
-31.1427316262
21
56.64841853
31
0.0
0
LINE
5
1704
100
AcDbEntity
100
AcDbLine
8
3
62
256
370
-1
6
ByLayer
10
-31.1427316262
20
56.64841853
30
0.0
11
-30.7401199775
21
56.3813684213
31
0.0
0
LINE
5
1705
100
AcDbEntity
100
AcDbLine
8
3
62
256
370
-1
6
ByLayer
10
-30.7401199775
20
56.3813684213
30
0.0
11
-30.338040341
21
56.1090318378
31
0.0
0
LINE
5
1706
100
AcDbEntity
100
AcDbLine
8
3
62
256
370
-1
6
ByLayer
10
-30.338040341
20
56.1090318378
30
0.0
11
-29.9365812278
21
55.8314880443
31
0.0
0
LINE
5
1707
100
AcDbEntity
100
AcDbLine
8
3
62
256
370
-1
6
ByLayer
10
-29.9365812278
20
55.8314880443
30
0.0
11
-29.5358303195
21
55.5488177578
31
0.0
0
LINE
5
1708
100
AcDbEntity
100
AcDbLine
8
3
62
256
370
-1
6
ByLayer
10
-29.5358303195
20
55.5488177578
30
0.0
11
-29.1358744426
21
55.2611031255
31
0.0
0
LINE
5
1709
100
AcDbEntity
100
AcDbLine
8
3
62
256
370
-1
6
ByLayer
10
-29.1358744426
20
55.2611031255
30
0.0
11
-28.7367995437
21
54.9684277023
31
0.0
0
LINE
5
1710
100
AcDbEntity
100
AcDbLine
8
3
62
256
370
-1
6
ByLayer
10
-28.7367995437
20
54.9684277023
30
0.0
11
-28.3386906643
21
54.6708764285
31
0.0
0
LINE
5
1711
100
AcDbEntity
100
AcDbLine
8
3
62
256
370
-1
6
ByLayer
10
-28.3386906643
20
54.6708764285
30
0.0
11
-27.9416319162
21
54.3685356061
31
0.0
0
LINE
5
1712
100
AcDbEntity
100
AcDbLine
8
3
62
256
370
-1
6
ByLayer
10
-27.9416319162
20
54.3685356061
30
0.0
11
-27.5457064578
21
54.0614928757
31
0.0
0
LINE
5
1713
100
AcDbEntity
100
AcDbLine
8
3
62
256
370
-1
6
ByLayer
10
-27.5457064578
20
54.0614928757
30
0.0
11
-27.1509964696
21
53.7498371921
31
0.0
0
LINE
5
1714
100
AcDbEntity
100
AcDbLine
8
3
62
256
370
-1
6
ByLayer
10
-27.1509964696
20
53.7498371921
30
0.0
11
-26.7575831312
21
53.4336588003
31
0.0
0
LINE
5
1715
100
AcDbEntity
100
AcDbLine
8
3
62
256
370
-1
6
ByLayer
10
-26.7575831312
20
53.4336588003
30
0.0
11
-26.3655465977
21
53.1130492104
31
0.0
0
LINE
5
1716
100
AcDbEntity
100
AcDbLine
8
3
62
256
370
-1
6
ByLayer
10
-26.3655465977
20
53.1130492104
30
0.0
11
-25.9749659777
21
52.7881011726
31
0.0
0
LINE
5
1717
100
AcDbEntity
100
AcDbLine
8
3
62
256
370
-1
6
ByLayer
10
-25.9749659777
20
52.7881011726
30
0.0
11
-25.58591931
21
52.4589086517
31
0.0
0
LINE
5
1718
100
AcDbEntity
100
AcDbLine
8
3
62
256
370
-1
6
ByLayer
10
-25.58591931
20
52.4589086517
30
0.0
11
-25.1984835425
21
52.125566801
31
0.0
0
LINE
5
1719
100
AcDbEntity
100
AcDbLine
8
3
62
256
370
-1
6
ByLayer
10
-25.1984835425
20
52.125566801
30
0.0
11
-24.8127345099
21
51.788171936
31
0.0
0
LINE
5
1720
100
AcDbEntity
100
AcDbLine
8
3
62
256
370
-1
6
ByLayer
10
-24.8127345099
20
51.788171936
30
0.0
11
-24.4287469128
21
51.4468215081
31
0.0
0
LINE
5
1721
100
AcDbEntity
100
AcDbLine
8
3
62
256
370
-1
6
ByLayer
10
-24.4287469128
20
51.4468215081
30
0.0
11
-24.0465942971
21
51.1016140773
31
0.0
0
LINE
5
1722
100
AcDbEntity
100
AcDbLine
8
3
62
256
370
-1
6
ByLayer
10
-24.0465942971
20
51.1016140773
30
0.0
11
-23.6663490332
21
50.7526492849
31
0.0
0
LINE
5
1723
100
AcDbEntity
100
AcDbLine
8
3
62
256
370
-1
6
ByLayer
10
-23.6663490332
20
50.7526492849
30
0.0
11
-23.2880822964
21
50.4000278258
31
0.0
0
LINE
5
1724
100
AcDbEntity
100
AcDbLine
8
3
62
256
370
-1
6
ByLayer
10
-23.2880822964
20
50.4000278258
30
0.0
11
-22.911864047
21
50.0438514207
31
0.0
0
LINE
5
1725
100
AcDbEntity
100
AcDbLine
8
3
62
256
370
-1
6
ByLayer
10
-22.911864047
20
50.0438514207
30
0.0
11
-22.5377630117
21
49.6842227875
31
0.0
0
LINE
5
1726
100
AcDbEntity
100
AcDbLine
8
3
62
256
370
-1
6
ByLayer
10
-22.5377630117
20
49.6842227875
30
0.0
11
-22.1658466644
21
49.3212456131
31
0.0
0
LINE
5
1727
100
AcDbEntity
100
AcDbLine
8
3
62
256
370
-1
6
ByLayer
10
-22.1658466644
20
49.3212456131
30
0.0
11
-21.7961812081
21
48.9550245241
31
0.0
0
LINE
5
1728
100
AcDbEntity
100
AcDbLine
8
3
62
256
370
-1
6
ByLayer
10
-21.7961812081
20
48.9550245241
30
0.0
11
-21.4288315574
21
48.5856650576
31
0.0
0
LINE
5
1729
100
AcDbEntity
100
AcDbLine
8
3
62
256
370
-1
6
ByLayer
10
-21.4288315574
20
48.5856650576
30
0.0
11
-21.0638613207
21
48.213273632
31
0.0
0
LINE
5
1730
100
AcDbEntity
100
AcDbLine
8
3
62
256
370
-1
6
ByLayer
10
-21.0638613207
20
48.213273632
30
0.0
11
-20.7013327837
21
47.8379575169
31
0.0
0
LINE
5
1731
100
AcDbEntity
100
AcDbLine
8
3
62
256
370
-1
6
ByLayer
10
-20.7013327837
20
47.8379575169
30
0.0
11
-20.3413068929
21
47.4598248033
31
0.0
0
LINE
5
1732
100
AcDbEntity
100
AcDbLine
8
3
62
256
370
-1
6
ByLayer
10
-20.3413068929
20
47.4598248033
30
0.0
11
-19.9838432392
21
47.0789843732
31
0.0
0
LINE
5
1733
100
AcDbEntity
100
AcDbLine
8
3
62
256
370
-1
6
ByLayer
10
-19.9838432392
20
47.0789843732
30
0.0
11
-19.629000043
21
46.6955458691
31
0.0
0
LINE
5
1734
100
AcDbEntity
100
AcDbLine
8
3
62
256
370
-1
6
ByLayer
10
-19.629000043
20
46.6955458691
30
0.0
11
-19.276834139
21
46.3096196632
31
0.0
0
LINE
5
1735
100
AcDbEntity
100
AcDbLine
8
3
62
256
370
-1
6
ByLayer
10
-19.276834139
20
46.3096196632
30
0.0
11
-18.9274009614
21
45.9213168263
31
0.0
0
LINE
5
1736
100
AcDbEntity
100
AcDbLine
8
3
62
256
370
-1
6
ByLayer
10
-18.9274009614
20
45.9213168263
30
0.0
11
-18.5807545302
21
45.5307490966
31
0.0
0
LINE
5
1737
100
AcDbEntity
100
AcDbLine
8
3
62
256
370
-1
6
ByLayer
10
-18.5807545302
20
45.5307490966
30
0.0
11
-18.2369474373
21
45.1380288485
31
0.0
0
LINE
5
1738
100
AcDbEntity
100
AcDbLine
8
3
62
256
370
-1
6
ByLayer
10
-18.2369474373
20
45.1380288485
30
0.0
11
-17.8960308337
21
44.7432690606
31
0.0
0
LINE
5
1739
100
AcDbEntity
100
AcDbLine
8
3
62
256
370
-1
6
ByLayer
10
-17.8960308337
20
44.7432690606
30
0.0
11
-17.5580544166
21
44.346583284
31
0.0
0
LINE
5
1740
100
AcDbEntity
100
AcDbLine
8
3
62
256
370
-1
6
ByLayer
10
-17.5580544166
20
44.346583284
30
0.0
11
-17.2230664178
21
43.9480856103
31
0.0
0
LINE
5
1741
100
AcDbEntity
100
AcDbLine
8
3
62
256
370
-1
6
ByLayer
10
-17.2230664178
20
43.9480856103
30
0.0
11
-16.8911135915
21
43.5478906393
31
0.0
0
LINE
5
1742
100
AcDbEntity
100
AcDbLine
8
3
62
256
370
-1
6
ByLayer
10
-16.8911135915
20
43.5478906393
30
0.0
11
-16.5622412039
21
43.146113447
31
0.0
0
LINE
5
1743
100
AcDbEntity
100
AcDbLine
8
3
62
256
370
-1
6
ByLayer
10
-16.5622412039
20
43.146113447
30
0.0
11
-16.2364930218
21
42.7428695524
31
0.0
0
LINE
5
1744
100
AcDbEntity
100
AcDbLine
8
3
62
256
370
-1
6
ByLayer
10
-16.2364930218
20
42.7428695524
30
0.0
11
-15.9139113032
21
42.3382748854
31
0.0
0
LINE
5
1745
100
AcDbEntity
100
AcDbLine
8
3
62
256
370
-1
6
ByLayer
10
-15.9139113032
20
42.3382748854
30
0.0
11
-15.5945367878
21
41.9324457539
31
0.0
0
LINE
5
1746
100
AcDbEntity
100
AcDbLine
8
3
62
256
370
-1
6
ByLayer
10
-15.5945367878
20
41.9324457539
30
0.0
11
-15.2784086872
21
41.5254988105
31
0.0
0
LINE
5
1747
100
AcDbEntity
100
AcDbLine
8
3
62
256
370
-1
6
ByLayer
10
-15.2784086872
20
41.5254988105
30
0.0
11
-14.9655646772
21
41.1175510199
31
0.0
0
LINE
5
1748
100
AcDbEntity
100
AcDbLine
8
3
62
256
370
-1
6
ByLayer
10
-14.9655646772
20
41.1175510199
30
0.0
11
-14.6560408894
21
40.7087196256
31
0.0
0
LINE
5
1749
100
AcDbEntity
100
AcDbLine
8
3
62
256
370
-1
6
ByLayer
10
-14.6560408894
20
40.7087196256
30
0.0
11
-14.3498719038
21
40.2991221165
31
0.0
0
LINE
5
1750
100
AcDbEntity
100
AcDbLine
8
3
62
256
370
-1
6
ByLayer
10
-14.3498719038
20
40.2991221165
30
0.0
11
-14.047090742
21
39.8888761937
31
0.0
0
LINE
5
1751
100
AcDbEntity
100
AcDbLine
8
3
62
256
370
-1
6
ByLayer
10
-14.047090742
20
39.8888761937
30
0.0
11
-13.7477288603
21
39.4780997371
31
0.0
0
LINE
5
1752
100
AcDbEntity
100
AcDbLine
8
3
62
256
370
-1
6
ByLayer
10
-13.7477288603
20
39.4780997371
30
0.0
11
-13.4518161446
21
39.0669107717
31
0.0
0
LINE
5
1753
100
AcDbEntity
100
AcDbLine
8
3
62
256
370
-1
6
ByLayer
10
-13.4518161446
20
39.0669107717
30
0.0
11
-13.1593809042
21
38.6554274344
31
0.0
0
LINE
5
1754
100
AcDbEntity
100
AcDbLine
8
3
62
256
370
-1
6
ByLayer
10
-13.1593809042
20
38.6554274344
30
0.0
11
-12.8704498676
21
38.2437679401
31
0.0
0
LINE
5
1755
100
AcDbEntity
100
AcDbLine
8
3
62
256
370
-1
6
ByLayer
10
-12.8704498676
20
38.2437679401
30
0.0
11
-12.5850481777
21
37.832050548
31
0.0
0
LINE
5
1756
100
AcDbEntity
100
AcDbLine
8
3
62
256
370
-1
6
ByLayer
10
-12.5850481777
20
37.832050548
30
0.0
11
-12.3031993885
21
37.4203935285
31
0.0
0
LINE
5
1757
100
AcDbEntity
100
AcDbLine
8
3
62
256
370
-1
6
ByLayer
10
-12.3031993885
20
37.4203935285
30
0.0
11
-12.0249254616
21
37.0089151288
31
0.0
0
LINE
5
1758
100
AcDbEntity
100
AcDbLine
8
3
62
256
370
-1
6
ByLayer
10
-12.0249254616
20
37.0089151288
30
0.0
11
-11.7502467634
21
36.5977335397
31
0.0
0
LINE
5
1759
100
AcDbEntity
100
AcDbLine
8
3
62
256
370
-1
6
ByLayer
10
-11.7502467634
20
36.5977335397
30
0.0
11
-11.4791820632
21
36.1869668615
31
0.0
0
LINE
5
1760
100
AcDbEntity
100
AcDbLine
8
3
62
256
370
-1
6
ByLayer
10
-11.4791820632
20
36.1869668615
30
0.0
11
-11.2117485314
21
35.776733071
31
0.0
0
LINE
5
1761
100
AcDbEntity
100
AcDbLine
8
3
62
256
370
-1
6
ByLayer
10
-11.2117485314
20
35.776733071
30
0.0
11
-10.9479617386
21
35.367149987
31
0.0
0
LINE
5
1762
100
AcDbEntity
100
AcDbLine
8
3
62
256
370
-1
6
ByLayer
10
-10.9479617386
20
35.367149987
30
0.0
11
-10.6878356547
21
34.9583352372
31
0.0
0
LINE
5
1763
100
AcDbEntity
100
AcDbLine
8
3
62
256
370
-1
6
ByLayer
10
-10.6878356547
20
34.9583352372
30
0.0
11
-10.4313826492
21
34.5504062247
31
0.0
0
LINE
5
1764
100
AcDbEntity
100
AcDbLine
8
3
62
256
370
-1
6
ByLayer
10
-10.4313826492
20
34.5504062247
30
0.0
11
-10.1786134914
21
34.143480094
31
0.0
0
LINE
5
1765
100
AcDbEntity
100
AcDbLine
8
3
62
256
370
-1
6
ByLayer
10
-10.1786134914
20
34.143480094
30
0.0
11
-9.92953735187
21
33.737673698
31
0.0
0
LINE
5
1766
100
AcDbEntity
100
AcDbLine
8
3
62
256
370
-1
6
ByLayer
10
-9.92953735187
20
33.737673698
30
0.0
11
-9.68416180361
21
33.3331035642
31
0.0
0
LINE
5
1767
100
AcDbEntity
100
AcDbLine
8
3
62
256
370
-1
6
ByLayer
10
-9.68416180361
20
33.3331035642
30
0.0
11
-9.4424928244
21
32.9298858617
31
0.0
0
LINE
5
1768
100
AcDbEntity
100
AcDbLine
8
3
62
256
370
-1
6
ByLayer
10
-9.4424928244
20
32.9298858617
30
0.0
11
-9.20453479936
21
32.5281363679
31
0.0
0
LINE
5
1769
100
AcDbEntity
100
AcDbLine
8
3
62
256
370
-1
6
ByLayer
10
-9.20453479936
20
32.5281363679
30
0.0
11
-8.97029052415
21
32.1279704352
31
0.0
0
LINE
5
1770
100
AcDbEntity
100
AcDbLine
8
3
62
256
370
-1
6
ByLayer
10
-8.97029052415
20
32.1279704352
30
0.0
11
-8.73976120863
21
31.7295029581
31
0.0
0
LINE
5
1771
100
AcDbEntity
100
AcDbLine
8
3
62
256
370
-1
6
ByLayer
10
-8.73976120863
20
31.7295029581
30
0.0
11
-8.51294648116
21
31.3328483405
31
0.0
0
LINE
5
1772
100
AcDbEntity
100
AcDbLine
8
3
62
256
370
-1
6
ByLayer
10
-8.51294648116
20
31.3328483405
30
0.0
11
-8.28984439327
21
30.9381204625
31
0.0
0
LINE
5
1773
100
AcDbEntity
100
AcDbLine
8
3
62
256
370
-1
6
ByLayer
10
-8.28984439327
20
30.9381204625
30
0.0
11
-8.07045142501
21
30.5454326482
31
0.0
0
LINE
5
1774
100
AcDbEntity
100
AcDbLine
8
3
62
256
370
-1
6
ByLayer
10
-8.07045142501
20
30.5454326482
30
0.0
11
-7.85476249068
21
30.1548976328
31
0.0
0
LINE
5
1775
100
AcDbEntity
100
AcDbLine
8
3
62
256
370
-1
6
ByLayer
10
-7.85476249068
20
30.1548976328
30
0.0
11
-7.64277094523
21
29.7666275308
31
0.0
0
LINE
5
1776
100
AcDbEntity
100
AcDbLine
8
3
62
256
370
-1
6
ByLayer
10
-7.64277094523
20
29.7666275308
30
0.0
11
-7.43446859101
21
29.3807338033
31
0.0
0
LINE
5
1777
100
AcDbEntity
100
AcDbLine
8
3
62
256
370
-1
6
ByLayer
10
-7.43446859101
20
29.3807338033
30
0.0
11
-7.22984568519
21
28.9973272265
31
0.0
0
LINE
5
1778
100
AcDbEntity
100
AcDbLine
8
3
62
256
370
-1
6
ByLayer
10
-7.22984568519
20
28.9973272265
30
0.0
11
-7.02889094757
21
28.6165178597
31
0.0
0
LINE
5
1779
100
AcDbEntity
100
AcDbLine
8
3
62
256
370
-1
6
ByLayer
10
-7.02889094757
20
28.6165178597
30
0.0
11
-6.83159156899
21
28.2384150135
31
0.0
0
LINE
5
1780
100
AcDbEntity
100
AcDbLine
8
3
62
256
370
-1
6
ByLayer
10
-6.83159156899
20
28.2384150135
30
0.0
11
-6.63793322019
21
27.8631272189
31
0.0
0
LINE
5
1781
100
AcDbEntity
100
AcDbLine
8
3
62
256
370
-1
6
ByLayer
10
-6.63793322019
20
27.8631272189
30
0.0
11
-6.44790006117
21
27.4907621957
31
0.0
0
LINE
5
1782
100
AcDbEntity
100
AcDbLine
8
3
62
256
370
-1
6
ByLayer
10
-6.44790006117
20
27.4907621957
30
0.0
11
-6.2614747511
21
27.1214268218
31
0.0
0
LINE
5
1783
100
AcDbEntity
100
AcDbLine
8
3
62
256
370
-1
6
ByLayer
10
-6.2614747511
20
27.1214268218
30
0.0
11
-6.07863845869
21
26.7552271026
31
0.0
0
LINE
5
1784
100
AcDbEntity
100
AcDbLine
8
3
62
256
370
-1
6
ByLayer
10
-6.07863845869
20
26.7552271026
30
0.0
11
-5.89937087303
21
26.3922681401
31
0.0
0
LINE
5
1785
100
AcDbEntity
100
AcDbLine
8
3
62
256
370
-1
6
ByLayer
10
-5.89937087303
20
26.3922681401
30
0.0
11
-5.72365021497
21
26.032654103
31
0.0
0
LINE
5
1786
100
AcDbEntity
100
AcDbLine
8
3
62
256
370
-1
6
ByLayer
10
-5.72365021497
20
26.032654103
30
0.0
11
-5.55145324896
21
25.676488197
31
0.0
0
LINE
5
1787
100
AcDbEntity
100
AcDbLine
8
3
62
256
370
-1
6
ByLayer
10
-5.55145324896
20
25.676488197
30
0.0
11
-5.38275529536
21
25.3238726345
31
0.0
0
LINE
5
1788
100
AcDbEntity
100
AcDbLine
8
3
62
256
370
-1
6
ByLayer
10
-5.38275529536
20
25.3238726345
30
0.0
11
-5.21753024324
21
24.9749086057
31
0.0
0
LINE
5
1789
100
AcDbEntity
100
AcDbLine
8
3
62
256
370
-1
6
ByLayer
10
-5.21753024324
20
24.9749086057
30
0.0
11
-5.05575056364
21
24.6296962494
31
0.0
0
LINE
5
1790
100
AcDbEntity
100
AcDbLine
8
3
62
256
370
-1
6
ByLayer
10
-5.05575056364
20
24.6296962494
30
0.0
11
-4.89738732331
21
24.2883346239
31
0.0
0
LINE
5
1791
100
AcDbEntity
100
AcDbLine
8
3
62
256
370
-1
6
ByLayer
10
-4.89738732331
20
24.2883346239
30
0.0
11
-4.74241019893
21
23.9509216789
31
0.0
0
LINE
5
1792
100
AcDbEntity
100
AcDbLine
8
3
62
256
370
-1
6
ByLayer
10
-4.74241019893
20
23.9509216789
30
0.0
11
-4.59078749173
21
23.617554227
31
0.0
0
LINE
5
1793
100
AcDbEntity
100
AcDbLine
8
3
62
256
370
-1
6
ByLayer
10
-4.59078749173
20
23.617554227
30
0.0
11
-4.44248614261
21
23.2883279161
31
0.0
0
LINE
5
1794
100
AcDbEntity
100
AcDbLine
8
3
62
256
370
-1
6
ByLayer
10
-4.44248614261
20
23.2883279161
30
0.0
11
-4.2974717477
21
22.9633372015
31
0.0
0
LINE
5
1795
100
AcDbEntity
100
AcDbLine
8
3
62
256
370
-1
6
ByLayer
10
-4.2974717477
20
22.9633372015
30
0.0
11
-4.15570857437
21
22.6426753189
31
0.0
0
LINE
5
1796
100
AcDbEntity
100
AcDbLine
8
3
62
256
370
-1
6
ByLayer
10
-4.15570857437
20
22.6426753189
30
0.0
11
-4.01715957763
21
22.3264342578
31
0.0
0
LINE
5
1797
100
AcDbEntity
100
AcDbLine
8
3
62
256
370
-1
6
ByLayer
10
-4.01715957763
20
22.3264342578
30
0.0
11
-3.88178641703
21
22.0147047345
31
0.0
0
LINE
5
1798
100
AcDbEntity
100
AcDbLine
8
3
62
256
370
-1
6
ByLayer
10
-3.88178641703
20
22.0147047345
30
0.0
11
-3.74954947392
21
21.7075761662
31
0.0
0
LINE
5
1799
100
AcDbEntity
100
AcDbLine
8
3
62
256
370
-1
6
ByLayer
10
-3.74954947392
20
21.7075761662
30
0.0
11
-3.62040786921
21
21.4051366453
31
0.0
0
LINE
5
1800
100
AcDbEntity
100
AcDbLine
8
3
62
256
370
-1
6
ByLayer
10
-3.62040786921
20
21.4051366453
30
0.0
11
-3.49431948143
21
21.1074729139
31
0.0
0
LINE
5
1801
100
AcDbEntity
100
AcDbLine
8
3
62
256
370
-1
6
ByLayer
10
-3.49431948143
20
21.1074729139
30
0.0
11
-3.37124096532
21
20.8146703387
31
0.0
0
LINE
5
1802
100
AcDbEntity
100
AcDbLine
8
3
62
256
370
-1
6
ByLayer
10
-3.37124096532
20
20.8146703387
30
0.0
11
-3.25112777073
21
20.5268128869
31
0.0
0
LINE
5
1803
100
AcDbEntity
100
AcDbLine
8
3
62
256
370
-1
6
ByLayer
10
-3.25112777073
20
20.5268128869
30
0.0
11
-3.13393416197
21
20.2439831011
31
0.0
0
LINE
5
1804
100
AcDbEntity
100
AcDbLine
8
3
62
256
370
-1
6
ByLayer
10
-3.13393416197
20
20.2439831011
30
0.0
11
-3.0196132375
21
19.9662620763
31
0.0
0
LINE
5
1805
100
AcDbEntity
100
AcDbLine
8
3
62
256
370
-1
6
ByLayer
10
-3.0196132375
20
19.9662620763
30
0.0
11
-2.90811695007
21
19.6937294362
31
0.0
0
LINE
5
1806
100
AcDbEntity
100
AcDbLine
8
3
62
256
370
-1
6
ByLayer
10
-2.90811695007
20
19.6937294362
30
0.0
11
-2.79939612717
21
19.4264633099
31
0.0
0
LINE
5
1807
100
AcDbEntity
100
AcDbLine
8
3
62
256
370
-1
6
ByLayer
10
-2.79939612717
20
19.4264633099
30
0.0
11
-2.69340049189
21
19.1645403102
31
0.0
0
LINE
5
1808
100
AcDbEntity
100
AcDbLine
8
3
62
256
370
-1
6
ByLayer
10
-2.69340049189
20
19.1645403102
30
0.0
11
-2.59007868411
21
18.9080355106
31
0.0
0
LINE
5
1809
100
AcDbEntity
100
AcDbLine
8
3
62
256
370
-1
6
ByLayer
10
-2.59007868411
20
18.9080355106
30
0.0
11
-2.48937828207
21
18.6570224241
31
0.0
0
LINE
5
1810
100
AcDbEntity
100
AcDbLine
8
3
62
256
370
-1
6
ByLayer
10
-2.48937828207
20
18.6570224241
30
0.0
11
-2.39124582431
21
18.4115729819
31
0.0
0
LINE
5
1811
100
AcDbEntity
100
AcDbLine
8
3
62
256
370
-1
6
ByLayer
10
-2.39124582431
20
18.4115729819
30
0.0
11
-2.29562683185
21
18.1717575127
31
0.0
0
LINE
5
1812
100
AcDbEntity
100
AcDbLine
8
3
62
256
370
-1
6
ByLayer
10
-2.29562683185
20
18.1717575127
30
0.0
11
-2.20246583084
21
17.9376447222
31
0.0
0
LINE
5
1813
100
AcDbEntity
100
AcDbLine
8
3
62
256
370
-1
6
ByLayer
10
-2.20246583084
20
17.9376447222
30
0.0
11
-2.11170637546
21
17.7093016735
31
0.0
0
LINE
5
1814
100
AcDbEntity
100
AcDbLine
8
3
62
256
370
-1
6
ByLayer
10
-2.11170637546
20
17.7093016735
30
0.0
11
-2.02329107108
21
17.4867937675
31
0.0
0
LINE
5
1815
100
AcDbEntity
100
AcDbLine
8
3
62
256
370
-1
6
ByLayer
10
-2.02329107108
20
17.4867937675
30
0.0
11
-1.93716159792
21
17.2701847244
31
0.0
0
LINE
5
1816
100
AcDbEntity
100
AcDbLine
8
3
62
256
370
-1
6
ByLayer
10
-1.93716159792
20
17.2701847244
30
0.0
11
-1.85325873475
21
17.0595365648
31
0.0
0
LINE
5
1817
100
AcDbEntity
100
AcDbLine
8
3
62
256
370
-1
6
ByLayer
10
-1.85325873475
20
17.0595365648
30
0.0
11
-1.77152238315
21
16.8549095921
31
0.0
0
LINE
5
1818
100
AcDbEntity
100
AcDbLine
8
3
62
256
370
-1
6
ByLayer
10
-1.77152238315
20
16.8549095921
30
0.0
11
-1.69189159184
21
16.656362375
31
0.0
0
LINE
5
1819
100
AcDbEntity
100
AcDbLine
8
3
62
256
370
-1
6
ByLayer
10
-1.69189159184
20
16.656362375
30
0.0
11
-1.61430458144
21
16.4639517306
31
0.0
0
LINE
5
1820
100
AcDbEntity
100
AcDbLine
8
3
62
256
370
-1
6
ByLayer
10
-1.61430458144
20
16.4639517306
30
0.0
11
-1.5386987694
21
16.2777327079
31
0.0
0
LINE
5
1821
100
AcDbEntity
100
AcDbLine
8
3
62
256
370
-1
6
ByLayer
10
-1.5386987694
20
16.2777327079
30
0.0
11
-1.46501079527
21
16.0977585723
31
0.0
0
LINE
5
1822
100
AcDbEntity
100
AcDbLine
8
3
62
256
370
-1
6
ByLayer
10
-1.46501079527
20
16.0977585723
30
0.0
11
-1.39317654615
21
15.9240807895
31
0.0
0
LINE
5
1823
100
AcDbEntity
100
AcDbLine
8
3
62
256
370
-1
6
ByLayer
10
-1.39317654615
20
15.9240807895
30
0.0
11
-1.32313118248
21
15.7567490112
31
0.0
0
LINE
5
1824
100
AcDbEntity
100
AcDbLine
8
3
62
256
370
-1
6
ByLayer
10
-1.32313118248
20
15.7567490112
30
0.0
11
-1.25480916393
21
15.5958110606
31
0.0
0
LINE
5
1825
100
AcDbEntity
100
AcDbLine
8
3
62
256
370
-1
6
ByLayer
10
-1.25480916393
20
15.5958110606
30
0.0
11
-1.18814427568
21
15.4413129185
31
0.0
0
LINE
5
1826
100
AcDbEntity
100
AcDbLine
8
3
62
256
370
-1
6
ByLayer
10
-1.18814427568
20
15.4413129185
30
0.0
11
-1.1230696548
21
15.2932987101
31
0.0
0
LINE
5
1827
100
AcDbEntity
100
AcDbLine
8
3
62
256
370
-1
6
ByLayer
10
-1.1230696548
20
15.2932987101
30
0.0
11
-1.05951781687
21
15.1518106921
31
0.0
0
LINE
5
1828
100
AcDbEntity
100
AcDbLine
8
3
62
256
370
-1
6
ByLayer
10
-1.05951781687
20
15.1518106921
30
0.0
11
-0.997420682862
21
15.0168892408
31
0.0
0
LINE
5
1829
100
AcDbEntity
100
AcDbLine
8
3
62
256
370
-1
6
ByLayer
10
-0.997420682862
20
15.0168892408
30
0.0
11
-0.936709606125
21
14.8885728402
31
0.0
0
LINE
5
1830
100
AcDbEntity
100
AcDbLine
8
3
62
256
370
-1
6
ByLayer
10
-0.936709606125
20
14.8885728402
30
0.0
11
-0.877315399619
21
14.7668980709
31
0.0
0
LINE
5
1831
100
AcDbEntity
100
AcDbLine
8
3
62
256
370
-1
6
ByLayer
10
-0.877315399619
20
14.7668980709
30
0.0
11
-0.819168363304
21
14.6518995995
31
0.0
0
LINE
5
1832
100
AcDbEntity
100
AcDbLine
8
3
62
256
370
-1
6
ByLayer
10
-0.819168363304
20
14.6518995995
30
0.0
11
-0.762198311696
21
14.5436101686
31
0.0
0
LINE
5
1833
100
AcDbEntity
100
AcDbLine
8
3
62
256
370
-1
6
ByLayer
10
-0.762198311696
20
14.5436101686
30
0.0
11
-0.706334601586
21
14.4420605876
31
0.0
0
LINE
5
1834
100
AcDbEntity
100
AcDbLine
8
3
62
256
370
-1
6
ByLayer
10
-0.706334601586
20
14.4420605876
30
0.0
11
-0.651506159906
21
14.3472797235
31
0.0
0
LINE
5
1835
100
AcDbEntity
100
AcDbLine
8
3
62
256
370
-1
6
ByLayer
10
-0.651506159906
20
14.3472797235
30
0.0
11
-0.597641511731
21
14.2592944924
31
0.0
0
LINE
5
1836
100
AcDbEntity
100
AcDbLine
8
3
62
256
370
-1
6
ByLayer
10
-0.597641511731
20
14.2592944924
30
0.0
11
-0.544668808425
21
14.1781298522
31
0.0
0
LINE
5
1837
100
AcDbEntity
100
AcDbLine
8
3
62
256
370
-1
6
ByLayer
10
-0.544668808425
20
14.1781298522
30
0.0
11
-0.492515855892
21
14.1038087952
31
0.0
0
LINE
5
1838
100
AcDbEntity
100
AcDbLine
8
3
62
256
370
-1
6
ByLayer
10
-0.492515855892
20
14.1038087952
30
0.0
11
-0.441110142951
21
14.0363523411
31
0.0
0
LINE
5
1839
100
AcDbEntity
100
AcDbLine
8
3
62
256
370
-1
6
ByLayer
10
-0.441110142951
20
14.0363523411
30
0.0
11
-0.390378869815
21
13.9757795317
31
0.0
0
LINE
5
1840
100
AcDbEntity
100
AcDbLine
8
3
62
256
370
-1
6
ByLayer
10
-0.390378869815
20
13.9757795317
30
0.0
11
-0.340248976654
21
13.9221074246
31
0.0
0
LINE
5
1841
100
AcDbEntity
100
AcDbLine
8
3
62
256
370
-1
6
ByLayer
10
-0.340248976654
20
13.9221074246
30
0.0
11
-0.290647172256
21
13.8753510887
31
0.0
0
LINE
5
1842
100
AcDbEntity
100
AcDbLine
8
3
62
256
370
-1
6
ByLayer
10
-0.290647172256
20
13.8753510887
30
0.0
11
-0.24149996275
21
13.8355235998
31
0.0
0
LINE
5
1843
100
AcDbEntity
100
AcDbLine
8
3
62
256
370
-1
6
ByLayer
10
-0.24149996275
20
13.8355235998
30
0.0
11
-0.192733680409
21
13.8026360369
31
0.0
0
LINE
5
1844
100
AcDbEntity
100
AcDbLine
8
3
62
256
370
-1
6
ByLayer
10
-0.192733680409
20
13.8026360369
30
0.0
11
-0.144274512495
21
13.7766974787
31
0.0
0
LINE
5
1845
100
AcDbEntity
100
AcDbLine
8
3
62
256
370
-1
6
ByLayer
10
-0.144274512495
20
13.7766974787
30
0.0
11
-0.0960485301655
21
13.7577150015
31
0.0
0
LINE
5
1846
100
AcDbEntity
100
AcDbLine
8
3
62
256
370
-1
6
ByLayer
10
-0.0960485301655
20
13.7577150015
30
0.0
11
-0.0479817174064
21
13.7456936766
31
0.0
0
LINE
5
1847
100
AcDbEntity
100
AcDbLine
8
3
62
256
370
-1
6
ByLayer
10
-0.0479817174064
20
13.7456936766
30
0.0
11
-3.36537416964e-15
21
13.7406365692
31
0.0
0
MTEXT
5
1848
100
AcDbEntity
100
AcDbMText
8
3
62
256
370
-1
6
ByLayer
10
0.12033674085
20
-41.1487138004
30
0.0
40
3
41
100.0
71
8
72
0
1
Butterfly Curve
7
normallatin1
50
0.0
73
1
44
1.0
0
ENDSEC
  0
SECTION
  2
OBJECTS
  0
DICTIONARY
  5
C
100
AcDbDictionary
280
0
281
1
  3
ACAD_GROUP
350
D
  3
ACAD_LAYOUT
350
1A
  3
ACAD_MLINESTYLE
350
17
  3
ACAD_PLOTSETTINGS
350
19
  3
ACAD_PLOTSTYLENAME
350
E
  3
AcDbVariableDictionary
350
48
  0
DICTIONARY
  5
D
100
AcDbDictionary
280
0
281
1
  0
ACDBDICTIONARYWDFLT
  5
E
100
AcDbDictionary
281
1
  3
Normal
350
F
100
AcDbDictionaryWithDefault
340
F
  0
ACDBPLACEHOLDER
  5
F
  0
DICTIONARY
  5
17
100
AcDbDictionary
280
0
281
1
  3
Standard
350
18
  0
MLINESTYLE
  5
18
100
AcDbMlineStyle
  2
STANDARD
 70
0
  3

 62
256
 51
90.0
 52
90.0
 71
2
 49
0.5
 62
256
  6
BYLAYER
 49
-0.5
 62
256
  6
BYLAYER
  0
DICTIONARY
  5
19
100
AcDbDictionary
280
0
281
1
  0
DICTIONARY
  5
1A
100
AcDbDictionary
281
1
  3
Layout1
350
1E
  3
Layout2
350
26
  3
Model
350
22
  0
LAYOUT
  5
1E
100
AcDbPlotSettings
  1

  2
C:\Program Files\AutoCAD 2002\plotters\DWF ePlot (optimized for plotting).pc3
  4

  6

 40
0.0
 41
0.0
 42
0.0
 43
0.0
 44
0.0
 45
0.0
 46
0.0
 47
0.0
 48
0.0
 49
0.0
140
0.0
141
0.0
142
1.0
143
1.0
 70
688
 72
0
 73
0
 74
5
  7

 75
16
147
1.0
148
0.0
149
0.0
100
AcDbLayout
  1
Layout1
 70
1
 71
1
 10
0.0
 20
0.0
 11
420.0
 21
297.0
 12
0.0
 22
0.0
 32
0.0
 14
100000000000000000000.0
 24
100000000000000000000.0
 34
100000000000000000000.0
 15
-100000000000000000000.0
 25
-100000000000000000000.0
 35
-100000000000000000000.0
146
0.0
 13
0.0
 23
0.0
 33
0.0
 16
1.0
 26
0.0
 36
0.0
 17
0.0
 27
1.0
 37
0.0
 76
0
330
1B
  0
LAYOUT
  5
22
100
AcDbPlotSettings
  1

  2
C:\Program Files\AutoCAD 2002\plotters\DWF ePlot (optimized for plotting).pc3
  4

  6

 40
0.0
 41
0.0
 42
0.0
 43
0.0
 44
0.0
 45
0.0
 46
0.0
 47
0.0
 48
0.0
 49
0.0
140
0.0
141
0.0
142
1.0
143
1.0
 70
1712
 72
0
 73
0
 74
0
  7

 75
0
147
1.0
148
0.0
149
0.0
100
AcDbLayout
  1
Model
 70
1
 71
0
 10
0.0
 20
0.0
 11
12.0
 21
9.0
 12
0.0
 22
0.0
 32
0.0
 14
0.0
 24
0.0
 34
0.0
 15
0.0
 25
0.0
 35
0.0
146
0.0
 13
0.0
 23
0.0
 33
0.0
 16
1.0
 26
0.0
 36
0.0
 17
0.0
 27
1.0
 37
0.0
 76
0
330
1F
  0
LAYOUT
  5
26
100
AcDbPlotSettings
  1

  2
C:\Program Files\AutoCAD 2002\plotters\DWF ePlot (optimized for plotting).pc3
  4

  6

 40
0.0
 41
0.0
 42
0.0
 43
0.0
 44
0.0
 45
0.0
 46
0.0
 47
0.0
 48
0.0
 49
0.0
140
0.0
141
0.0
142
1.0
143
1.0
 70
688
 72
0
 73
0
 74
5
  7

 75
16
147
1.0
148
0.0
149
0.0
100
AcDbLayout
  1
Layout2
 70
1
 71
2
 10
0.0
 20
0.0
 11
12.0
 21
9.0
 12
0.0
 22
0.0
 32
0.0
 14
0.0
 24
0.0
 34
0.0
 15
0.0
 25
0.0
 35
0.0
146
0.0
 13
0.0
 23
0.0
 33
0.0
 16
1.0
 26
0.0
 36
0.0
 17
0.0
 27
1.0
 37
0.0
 76
0
330
23
  0
DICTIONARY
  5
48
100
AcDbDictionary
281
1
  3
DIMASSOC
350
4A
  3
HIDETEXT
350
49
  0
DICTIONARYVAR
  5
49
100
DictionaryVariables
280
0
  1
2
  0
DICTIONARYVAR
  5
4A
100
DictionaryVariables
280
0
  1
1
  0
ENDSEC
  0
EOF
