  0
SECTION
  2
BLOCKS
  0
ENDSEC
  0
SECTION
  2
ENTITIES
  0
LINE
  8
0
 10
-150
 20
2500
 11
-150
 21
500
  0
LINE
  8
0
 10
-150
 20
500
 11
-1000
 21
200
  0
LINE
  8
0
 10
-1000
 20
200
 11
-1000
 21
-2.51503e-013
  0
LINE
  8
0
 10
-1000
 20
-2.51503e-013
 11
1000
 21
1.92587e-013
  0
LINE
  8
0
 10
1000
 20
1.92587e-013
 11
1000
 21
200
  0
LINE
  8
0
 10
1000
 20
200
 11
150
 21
500
  0
LINE
  8
0
 10
150
 20
500
 11
150
 21
2500
  0
LINE
  8
0
 10
150
 20
2500
 11
-150
 21
2500
  0
LINE
  8
0
 10
-950
 20
102.938
 11
950
 21
102.938
  0
LINE
  8
0
 10
950
 20
102.938
 11
950
 21
91.0615
  0
LINE
  8
0
 10
950
 20
91.0615
 11
-950
 21
91.0615
  0
LINE
  8
0
 10
-950
 20
91.0615
 11
-950
 21
102.938
  0
LINE
  8
0
 10
-942
 20
91
 11
-941.149
 21
90.8966
  0
LINE
  8
0
 10
-941.149
 20
90.8966
 11
-940.085
 21
90.7675
  0
LINE
  8
0
 10
-940.085
 20
90.7675
 11
-938.282
 21
90.0836
  0
LINE
  8
0
 10
-938.282
 20
90.0836
 11
-936.695
 21
88.9881
  0
LINE
  8
0
 10
-936.695
 20
88.9881
 11
-935.416
 21
87.5445
  0
LINE
  8
0
 10
-935.416
 20
87.5445
 11
-934.52
 21
85.8368
  0
LINE
  8
0
 10
-934.52
 20
85.8368
 11
-934.058
 21
83.9643
  0
LINE
  8
0
 10
-934.058
 20
83.9643
 11
-934.058
 21
82.0357
  0
LINE
  8
0
 10
-934.058
 20
82.0357
 11
-934.52
 21
80.1632
  0
LINE
  8
0
 10
-934.52
 20
80.1632
 11
-935.416
 21
78.4555
  0
LINE
  8
0
 10
-935.416
 20
78.4555
 11
-936.695
 21
77.0119
  0
LINE
  8
0
 10
-936.695
 20
77.0119
 11
-938.282
 21
75.9164
  0
LINE
  8
0
 10
-938.282
 20
75.9164
 11
-940.085
 21
75.2325
  0
LINE
  8
0
 10
-940.085
 20
75.2325
 11
-940.937
 21
75.1291
  0
LINE
  8
0
 10
-940.937
 20
75.1291
 11
-942
 21
75
  0
LINE
  8
0
 10
-942
 20
75
 11
-943.063
 21
75.1291
  0
LINE
  8
0
 10
-943.063
 20
75.1291
 11
-943.915
 21
75.2325
  0
LINE
  8
0
 10
-943.915
 20
75.2325
 11
-945.718
 21
75.9164
  0
LINE
  8
0
 10
-945.718
 20
75.9164
 11
-947.305
 21
77.0119
  0
LINE
  8
0
 10
-947.305
 20
77.0119
 11
-948.584
 21
78.4555
  0
LINE
  8
0
 10
-948.584
 20
78.4555
 11
-949.48
 21
80.1632
  0
LINE
  8
0
 10
-949.48
 20
80.1632
 11
-949.942
 21
82.0357
  0
LINE
  8
0
 10
-949.942
 20
82.0357
 11
-949.942
 21
83.9643
  0
LINE
  8
0
 10
-949.942
 20
83.9643
 11
-949.48
 21
85.8368
  0
LINE
  8
0
 10
-949.48
 20
85.8368
 11
-948.584
 21
87.5445
  0
LINE
  8
0
 10
-948.584
 20
87.5445
 11
-947.305
 21
88.9881
  0
LINE
  8
0
 10
-947.305
 20
88.9881
 11
-945.718
 21
90.0836
  0
LINE
  8
0
 10
-945.718
 20
90.0836
 11
-943.915
 21
90.7675
  0
LINE
  8
0
 10
-943.915
 20
90.7675
 11
-942.851
 21
90.8966
  0
LINE
  8
0
 10
-942.851
 20
90.8966
 11
-942
 21
91
  0
LINE
  8
0
 10
-770.727
 20
91
 11
-769.876
 21
90.8966
  0
LINE
  8
0
 10
-769.876
 20
90.8966
 11
-768.813
 21
90.7675
  0
LINE
  8
0
 10
-768.813
 20
90.7675
 11
-767.009
 21
90.0836
  0
LINE
  8
0
 10
-767.009
 20
90.0836
 11
-765.422
 21
88.9881
  0
LINE
  8
0
 10
-765.422
 20
88.9881
 11
-764.143
 21
87.5445
  0
LINE
  8
0
 10
-764.143
 20
87.5445
 11
-763.247
 21
85.8368
  0
LINE
  8
0
 10
-763.247
 20
85.8368
 11
-762.786
 21
83.9643
  0
LINE
  8
0
 10
-762.786
 20
83.9643
 11
-762.786
 21
82.0357
  0
LINE
  8
0
 10
-762.786
 20
82.0357
 11
-763.247
 21
80.1632
  0
LINE
  8
0
 10
-763.247
 20
80.1632
 11
-764.143
 21
78.4555
  0
LINE
  8
0
 10
-764.143
 20
78.4555
 11
-765.422
 21
77.0119
  0
LINE
  8
0
 10
-765.422
 20
77.0119
 11
-767.009
 21
75.9164
  0
LINE
  8
0
 10
-767.009
 20
75.9164
 11
-768.813
 21
75.2325
  0
LINE
  8
0
 10
-768.813
 20
75.2325
 11
-769.664
 21
75.1291
  0
LINE
  8
0
 10
-769.664
 20
75.1291
 11
-770.727
 21
75
  0
LINE
  8
0
 10
-770.727
 20
75
 11
-771.79
 21
75.1291
  0
LINE
  8
0
 10
-771.79
 20
75.1291
 11
-772.642
 21
75.2325
  0
LINE
  8
0
 10
-772.642
 20
75.2325
 11
-774.445
 21
75.9164
  0
LINE
  8
0
 10
-774.445
 20
75.9164
 11
-776.032
 21
77.0119
  0
LINE
  8
0
 10
-776.032
 20
77.0119
 11
-777.311
 21
78.4555
  0
LINE
  8
0
 10
-777.311
 20
78.4555
 11
-778.207
 21
80.1632
  0
LINE
  8
0
 10
-778.207
 20
80.1632
 11
-778.669
 21
82.0357
  0
LINE
  8
0
 10
-778.669
 20
82.0357
 11
-778.669
 21
83.9643
  0
LINE
  8
0
 10
-778.669
 20
83.9643
 11
-778.207
 21
85.8368
  0
LINE
  8
0
 10
-778.207
 20
85.8368
 11
-777.311
 21
87.5445
  0
LINE
  8
0
 10
-777.311
 20
87.5445
 11
-776.032
 21
88.9881
  0
LINE
  8
0
 10
-776.032
 20
88.9881
 11
-774.445
 21
90.0836
  0
LINE
  8
0
 10
-774.445
 20
90.0836
 11
-772.642
 21
90.7675
  0
LINE
  8
0
 10
-772.642
 20
90.7675
 11
-771.579
 21
90.8966
  0
LINE
  8
0
 10
-771.579
 20
90.8966
 11
-770.727
 21
91
  0
LINE
  8
0
 10
-599.455
 20
91
 11
-598.603
 21
90.8966
  0
LINE
  8
0
 10
-598.603
 20
90.8966
 11
-597.54
 21
90.7675
  0
LINE
  8
0
 10
-597.54
 20
90.7675
 11
-595.737
 21
90.0836
  0
LINE
  8
0
 10
-595.737
 20
90.0836
 11
-594.15
 21
88.9881
  0
LINE
  8
0
 10
-594.15
 20
88.9881
 11
-592.871
 21
87.5445
  0
LINE
  8
0
 10
-592.871
 20
87.5445
 11
-591.974
 21
85.8368
  0
LINE
  8
0
 10
-591.974
 20
85.8368
 11
-591.513
 21
83.9643
  0
LINE
  8
0
 10
-591.513
 20
83.9643
 11
-591.513
 21
82.0357
  0
LINE
  8
0
 10
-591.513
 20
82.0357
 11
-591.974
 21
80.1632
  0
LINE
  8
0
 10
-591.974
 20
80.1632
 11
-592.871
 21
78.4555
  0
LINE
  8
0
 10
-592.871
 20
78.4555
 11
-594.15
 21
77.0119
  0
LINE
  8
0
 10
-594.15
 20
77.0119
 11
-595.737
 21
75.9164
  0
LINE
  8
0
 10
-595.737
 20
75.9164
 11
-597.54
 21
75.2325
  0
LINE
  8
0
 10
-597.54
 20
75.2325
 11
-598.391
 21
75.1291
  0
LINE
  8
0
 10
-598.391
 20
75.1291
 11
-599.455
 21
75
  0
LINE
  8
0
 10
-599.455
 20
75
 11
-600.518
 21
75.1291
  0
LINE
  8
0
 10
-600.518
 20
75.1291
 11
-601.369
 21
75.2325
  0
LINE
  8
0
 10
-601.369
 20
75.2325
 11
-603.172
 21
75.9164
  0
LINE
  8
0
 10
-603.172
 20
75.9164
 11
-604.76
 21
77.0119
  0
LINE
  8
0
 10
-604.76
 20
77.0119
 11
-606.038
 21
78.4555
  0
LINE
  8
0
 10
-606.038
 20
78.4555
 11
-606.935
 21
80.1632
  0
LINE
  8
0
 10
-606.935
 20
80.1632
 11
-607.396
 21
82.0357
  0
LINE
  8
0
 10
-607.396
 20
82.0357
 11
-607.396
 21
83.9643
  0
LINE
  8
0
 10
-607.396
 20
83.9643
 11
-606.935
 21
85.8368
  0
LINE
  8
0
 10
-606.935
 20
85.8368
 11
-606.038
 21
87.5445
  0
LINE
  8
0
 10
-606.038
 20
87.5445
 11
-604.76
 21
88.9881
  0
LINE
  8
0
 10
-604.76
 20
88.9881
 11
-603.172
 21
90.0836
  0
LINE
  8
0
 10
-603.172
 20
90.0836
 11
-601.369
 21
90.7675
  0
LINE
  8
0
 10
-601.369
 20
90.7675
 11
-600.306
 21
90.8966
  0
LINE
  8
0
 10
-600.306
 20
90.8966
 11
-599.455
 21
91
  0
LINE
  8
0
 10
-428.182
 20
91
 11
-427.33
 21
90.8966
  0
LINE
  8
0
 10
-427.33
 20
90.8966
 11
-426.267
 21
90.7675
  0
LINE
  8
0
 10
-426.267
 20
90.7675
 11
-424.464
 21
90.0836
  0
LINE
  8
0
 10
-424.464
 20
90.0836
 11
-422.877
 21
88.9881
  0
LINE
  8
0
 10
-422.877
 20
88.9881
 11
-421.598
 21
87.5445
  0
LINE
  8
0
 10
-421.598
 20
87.5445
 11
-420.702
 21
85.8368
  0
LINE
  8
0
 10
-420.702
 20
85.8368
 11
-420.24
 21
83.9643
  0
LINE
  8
0
 10
-420.24
 20
83.9643
 11
-420.24
 21
82.0357
  0
LINE
  8
0
 10
-420.24
 20
82.0357
 11
-420.702
 21
80.1632
  0
LINE
  8
0
 10
-420.702
 20
80.1632
 11
-421.598
 21
78.4555
  0
LINE
  8
0
 10
-421.598
 20
78.4555
 11
-422.877
 21
77.0119
  0
LINE
  8
0
 10
-422.877
 20
77.0119
 11
-424.464
 21
75.9164
  0
LINE
  8
0
 10
-424.464
 20
75.9164
 11
-426.267
 21
75.2325
  0
LINE
  8
0
 10
-426.267
 20
75.2325
 11
-427.119
 21
75.1291
  0
LINE
  8
0
 10
-427.119
 20
75.1291
 11
-428.182
 21
75
  0
LINE
  8
0
 10
-428.182
 20
75
 11
-429.245
 21
75.1291
  0
LINE
  8
0
 10
-429.245
 20
75.1291
 11
-430.096
 21
75.2325
  0
LINE
  8
0
 10
-430.096
 20
75.2325
 11
-431.9
 21
75.9164
  0
LINE
  8
0
 10
-431.9
 20
75.9164
 11
-433.487
 21
77.0119
  0
LINE
  8
0
 10
-433.487
 20
77.0119
 11
-434.766
 21
78.4555
  0
LINE
  8
0
 10
-434.766
 20
78.4555
 11
-435.662
 21
80.1632
  0
LINE
  8
0
 10
-435.662
 20
80.1632
 11
-436.123
 21
82.0357
  0
LINE
  8
0
 10
-436.123
 20
82.0357
 11
-436.123
 21
83.9643
  0
LINE
  8
0
 10
-436.123
 20
83.9643
 11
-435.662
 21
85.8368
  0
LINE
  8
0
 10
-435.662
 20
85.8368
 11
-434.766
 21
87.5445
  0
LINE
  8
0
 10
-434.766
 20
87.5445
 11
-433.487
 21
88.9881
  0
LINE
  8
0
 10
-433.487
 20
88.9881
 11
-431.9
 21
90.0836
  0
LINE
  8
0
 10
-431.9
 20
90.0836
 11
-430.096
 21
90.7675
  0
LINE
  8
0
 10
-430.096
 20
90.7675
 11
-429.033
 21
90.8966
  0
LINE
  8
0
 10
-429.033
 20
90.8966
 11
-428.182
 21
91
  0
LINE
  8
0
 10
-256.909
 20
91
 11
-256.058
 21
90.8966
  0
LINE
  8
0
 10
-256.058
 20
90.8966
 11
-254.995
 21
90.7675
  0
LINE
  8
0
 10
-254.995
 20
90.7675
 11
-253.191
 21
90.0836
  0
LINE
  8
0
 10
-253.191
 20
90.0836
 11
-251.604
 21
88.9881
  0
LINE
  8
0
 10
-251.604
 20
88.9881
 11
-250.325
 21
87.5445
  0
LINE
  8
0
 10
-250.325
 20
87.5445
 11
-249.429
 21
85.8368
  0
LINE
  8
0
 10
-249.429
 20
85.8368
 11
-248.967
 21
83.9643
  0
LINE
  8
0
 10
-248.967
 20
83.9643
 11
-248.967
 21
82.0357
  0
LINE
  8
0
 10
-248.967
 20
82.0357
 11
-249.429
 21
80.1632
  0
LINE
  8
0
 10
-249.429
 20
80.1632
 11
-250.325
 21
78.4555
  0
LINE
  8
0
 10
-250.325
 20
78.4555
 11
-251.604
 21
77.0119
  0
LINE
  8
0
 10
-251.604
 20
77.0119
 11
-253.191
 21
75.9164
  0
LINE
  8
0
 10
-253.191
 20
75.9164
 11
-254.995
 21
75.2325
  0
LINE
  8
0
 10
-254.995
 20
75.2325
 11
-255.846
 21
75.1291
  0
LINE
  8
0
 10
-255.846
 20
75.1291
 11
-256.909
 21
75
  0
LINE
  8
0
 10
-256.909
 20
75
 11
-257.972
 21
75.1291
  0
LINE
  8
0
 10
-257.972
 20
75.1291
 11
-258.824
 21
75.2325
  0
LINE
  8
0
 10
-258.824
 20
75.2325
 11
-260.627
 21
75.9164
  0
LINE
  8
0
 10
-260.627
 20
75.9164
 11
-262.214
 21
77.0119
  0
LINE
  8
0
 10
-262.214
 20
77.0119
 11
-263.493
 21
78.4555
  0
LINE
  8
0
 10
-263.493
 20
78.4555
 11
-264.389
 21
80.1632
  0
LINE
  8
0
 10
-264.389
 20
80.1632
 11
-264.851
 21
82.0357
  0
LINE
  8
0
 10
-264.851
 20
82.0357
 11
-264.851
 21
83.9643
  0
LINE
  8
0
 10
-264.851
 20
83.9643
 11
-264.389
 21
85.8368
  0
LINE
  8
0
 10
-264.389
 20
85.8368
 11
-263.493
 21
87.5445
  0
LINE
  8
0
 10
-263.493
 20
87.5445
 11
-262.214
 21
88.9881
  0
LINE
  8
0
 10
-262.214
 20
88.9881
 11
-260.627
 21
90.0836
  0
LINE
  8
0
 10
-260.627
 20
90.0836
 11
-258.824
 21
90.7675
  0
LINE
  8
0
 10
-258.824
 20
90.7675
 11
-257.761
 21
90.8966
  0
LINE
  8
0
 10
-257.761
 20
90.8966
 11
-256.909
 21
91
  0
LINE
  8
0
 10
-85.6364
 20
91
 11
-84.7849
 21
90.8966
  0
LINE
  8
0
 10
-84.7849
 20
90.8966
 11
-83.7218
 21
90.7675
  0
LINE
  8
0
 10
-83.7218
 20
90.7675
 11
-81.9186
 21
90.0836
  0
LINE
  8
0
 10
-81.9186
 20
90.0836
 11
-80.3314
 21
88.9881
  0
LINE
  8
0
 10
-80.3314
 20
88.9881
 11
-79.0525
 21
87.5445
  0
LINE
  8
0
 10
-79.0525
 20
87.5445
 11
-78.1562
 21
85.8368
  0
LINE
  8
0
 10
-78.1562
 20
85.8368
 11
-77.6947
 21
83.9643
  0
LINE
  8
0
 10
-77.6947
 20
83.9643
 11
-77.6947
 21
82.0357
  0
LINE
  8
0
 10
-77.6947
 20
82.0357
 11
-78.1562
 21
80.1632
  0
LINE
  8
0
 10
-78.1562
 20
80.1632
 11
-79.0525
 21
78.4555
  0
LINE
  8
0
 10
-79.0525
 20
78.4555
 11
-80.3314
 21
77.0119
  0
LINE
  8
0
 10
-80.3314
 20
77.0119
 11
-81.9186
 21
75.9164
  0
LINE
  8
0
 10
-81.9186
 20
75.9164
 11
-83.7218
 21
75.2325
  0
LINE
  8
0
 10
-83.7218
 20
75.2325
 11
-84.5733
 21
75.1291
  0
LINE
  8
0
 10
-84.5733
 20
75.1291
 11
-85.6364
 21
75
  0
LINE
  8
0
 10
-85.6364
 20
75
 11
-86.6995
 21
75.1291
  0
LINE
  8
0
 10
-86.6995
 20
75.1291
 11
-87.5509
 21
75.2325
  0
LINE
  8
0
 10
-87.5509
 20
75.2325
 11
-89.3541
 21
75.9164
  0
LINE
  8
0
 10
-89.3541
 20
75.9164
 11
-90.9413
 21
77.0119
  0
LINE
  8
0
 10
-90.9413
 20
77.0119
 11
-92.2202
 21
78.4555
  0
LINE
  8
0
 10
-92.2202
 20
78.4555
 11
-93.1165
 21
80.1632
  0
LINE
  8
0
 10
-93.1165
 20
80.1632
 11
-93.578
 21
82.0357
  0
LINE
  8
0
 10
-93.578
 20
82.0357
 11
-93.578
 21
83.9643
  0
LINE
  8
0
 10
-93.578
 20
83.9643
 11
-93.1165
 21
85.8368
  0
LINE
  8
0
 10
-93.1165
 20
85.8368
 11
-92.2202
 21
87.5445
  0
LINE
  8
0
 10
-92.2202
 20
87.5445
 11
-90.9413
 21
88.9881
  0
LINE
  8
0
 10
-90.9413
 20
88.9881
 11
-89.3541
 21
90.0836
  0
LINE
  8
0
 10
-89.3541
 20
90.0836
 11
-87.5509
 21
90.7675
  0
LINE
  8
0
 10
-87.5509
 20
90.7675
 11
-86.4878
 21
90.8966
  0
LINE
  8
0
 10
-86.4878
 20
90.8966
 11
-85.6364
 21
91
  0
LINE
  8
0
 10
85.6364
 20
91
 11
86.4878
 21
90.8966
  0
LINE
  8
0
 10
86.4878
 20
90.8966
 11
87.5509
 21
90.7675
  0
LINE
  8
0
 10
87.5509
 20
90.7675
 11
89.3541
 21
90.0836
  0
LINE
  8
0
 10
89.3541
 20
90.0836
 11
90.9413
 21
88.9881
  0
LINE
  8
0
 10
90.9413
 20
88.9881
 11
92.2202
 21
87.5445
  0
LINE
  8
0
 10
92.2202
 20
87.5445
 11
93.1165
 21
85.8368
  0
LINE
  8
0
 10
93.1165
 20
85.8368
 11
93.578
 21
83.9643
  0
LINE
  8
0
 10
93.578
 20
83.9643
 11
93.578
 21
82.0357
  0
LINE
  8
0
 10
93.578
 20
82.0357
 11
93.1165
 21
80.1632
  0
LINE
  8
0
 10
93.1165
 20
80.1632
 11
92.2202
 21
78.4555
  0
LINE
  8
0
 10
92.2202
 20
78.4555
 11
90.9413
 21
77.0119
  0
LINE
  8
0
 10
90.9413
 20
77.0119
 11
89.3541
 21
75.9164
  0
LINE
  8
0
 10
89.3541
 20
75.9164
 11
87.5509
 21
75.2325
  0
LINE
  8
0
 10
87.5509
 20
75.2325
 11
86.6995
 21
75.1291
  0
LINE
  8
0
 10
86.6995
 20
75.1291
 11
85.6364
 21
75
  0
LINE
  8
0
 10
85.6364
 20
75
 11
84.5733
 21
75.1291
  0
LINE
  8
0
 10
84.5733
 20
75.1291
 11
83.7218
 21
75.2325
  0
LINE
  8
0
 10
83.7218
 20
75.2325
 11
81.9186
 21
75.9164
  0
LINE
  8
0
 10
81.9186
 20
75.9164
 11
80.3314
 21
77.0119
  0
LINE
  8
0
 10
80.3314
 20
77.0119
 11
79.0525
 21
78.4555
  0
LINE
  8
0
 10
79.0525
 20
78.4555
 11
78.1562
 21
80.1632
  0
LINE
  8
0
 10
78.1562
 20
80.1632
 11
77.6947
 21
82.0357
  0
LINE
  8
0
 10
77.6947
 20
82.0357
 11
77.6947
 21
83.9643
  0
LINE
  8
0
 10
77.6947
 20
83.9643
 11
78.1562
 21
85.8368
  0
LINE
  8
0
 10
78.1562
 20
85.8368
 11
79.0525
 21
87.5445
  0
LINE
  8
0
 10
79.0525
 20
87.5445
 11
80.3314
 21
88.9881
  0
LINE
  8
0
 10
80.3314
 20
88.9881
 11
81.9186
 21
90.0836
  0
LINE
  8
0
 10
81.9186
 20
90.0836
 11
83.7218
 21
90.7675
  0
LINE
  8
0
 10
83.7218
 20
90.7675
 11
84.7849
 21
90.8966
  0
LINE
  8
0
 10
84.7849
 20
90.8966
 11
85.6364
 21
91
  0
LINE
  8
0
 10
256.909
 20
91
 11
257.761
 21
90.8966
  0
LINE
  8
0
 10
257.761
 20
90.8966
 11
258.824
 21
90.7675
  0
LINE
  8
0
 10
258.824
 20
90.7675
 11
260.627
 21
90.0836
  0
LINE
  8
0
 10
260.627
 20
90.0836
 11
262.214
 21
88.9881
  0
LINE
  8
0
 10
262.214
 20
88.9881
 11
263.493
 21
87.5445
  0
LINE
  8
0
 10
263.493
 20
87.5445
 11
264.389
 21
85.8368
  0
LINE
  8
0
 10
264.389
 20
85.8368
 11
264.851
 21
83.9643
  0
LINE
  8
0
 10
264.851
 20
83.9643
 11
264.851
 21
82.0357
  0
LINE
  8
0
 10
264.851
 20
82.0357
 11
264.389
 21
80.1632
  0
LINE
  8
0
 10
264.389
 20
80.1632
 11
263.493
 21
78.4555
  0
LINE
  8
0
 10
263.493
 20
78.4555
 11
262.214
 21
77.0119
  0
LINE
  8
0
 10
262.214
 20
77.0119
 11
260.627
 21
75.9164
  0
LINE
  8
0
 10
260.627
 20
75.9164
 11
258.824
 21
75.2325
  0
LINE
  8
0
 10
258.824
 20
75.2325
 11
257.972
 21
75.1291
  0
LINE
  8
0
 10
257.972
 20
75.1291
 11
256.909
 21
75
  0
LINE
  8
0
 10
256.909
 20
75
 11
255.846
 21
75.1291
  0
LINE
  8
0
 10
255.846
 20
75.1291
 11
254.995
 21
75.2325
  0
LINE
  8
0
 10
254.995
 20
75.2325
 11
253.191
 21
75.9164
  0
LINE
  8
0
 10
253.191
 20
75.9164
 11
251.604
 21
77.0119
  0
LINE
  8
0
 10
251.604
 20
77.0119
 11
250.325
 21
78.4555
  0
LINE
  8
0
 10
250.325
 20
78.4555
 11
249.429
 21
80.1632
  0
LINE
  8
0
 10
249.429
 20
80.1632
 11
248.967
 21
82.0357
  0
LINE
  8
0
 10
248.967
 20
82.0357
 11
248.967
 21
83.9643
  0
LINE
  8
0
 10
248.967
 20
83.9643
 11
249.429
 21
85.8368
  0
LINE
  8
0
 10
249.429
 20
85.8368
 11
250.325
 21
87.5445
  0
LINE
  8
0
 10
250.325
 20
87.5445
 11
251.604
 21
88.9881
  0
LINE
  8
0
 10
251.604
 20
88.9881
 11
253.191
 21
90.0836
  0
LINE
  8
0
 10
253.191
 20
90.0836
 11
254.995
 21
90.7675
  0
LINE
  8
0
 10
254.995
 20
90.7675
 11
256.058
 21
90.8966
  0
LINE
  8
0
 10
256.058
 20
90.8966
 11
256.909
 21
91
  0
LINE
  8
0
 10
428.182
 20
91
 11
429.033
 21
90.8966
  0
LINE
  8
0
 10
429.033
 20
90.8966
 11
430.096
 21
90.7675
  0
LINE
  8
0
 10
430.096
 20
90.7675
 11
431.9
 21
90.0836
  0
LINE
  8
0
 10
431.9
 20
90.0836
 11
433.487
 21
88.9881
  0
LINE
  8
0
 10
433.487
 20
88.9881
 11
434.766
 21
87.5445
  0
LINE
  8
0
 10
434.766
 20
87.5445
 11
435.662
 21
85.8368
  0
LINE
  8
0
 10
435.662
 20
85.8368
 11
436.123
 21
83.9643
  0
LINE
  8
0
 10
436.123
 20
83.9643
 11
436.123
 21
82.0357
  0
LINE
  8
0
 10
436.123
 20
82.0357
 11
435.662
 21
80.1632
  0
LINE
  8
0
 10
435.662
 20
80.1632
 11
434.766
 21
78.4555
  0
LINE
  8
0
 10
434.766
 20
78.4555
 11
433.487
 21
77.0119
  0
LINE
  8
0
 10
433.487
 20
77.0119
 11
431.9
 21
75.9164
  0
LINE
  8
0
 10
431.9
 20
75.9164
 11
430.096
 21
75.2325
  0
LINE
  8
0
 10
430.096
 20
75.2325
 11
429.245
 21
75.1291
  0
LINE
  8
0
 10
429.245
 20
75.1291
 11
428.182
 21
75
  0
LINE
  8
0
 10
428.182
 20
75
 11
427.119
 21
75.1291
  0
LINE
  8
0
 10
427.119
 20
75.1291
 11
426.267
 21
75.2325
  0
LINE
  8
0
 10
426.267
 20
75.2325
 11
424.464
 21
75.9164
  0
LINE
  8
0
 10
424.464
 20
75.9164
 11
422.877
 21
77.0119
  0
LINE
  8
0
 10
422.877
 20
77.0119
 11
421.598
 21
78.4555
  0
LINE
  8
0
 10
421.598
 20
78.4555
 11
420.702
 21
80.1632
  0
LINE
  8
0
 10
420.702
 20
80.1632
 11
420.24
 21
82.0357
  0
LINE
  8
0
 10
420.24
 20
82.0357
 11
420.24
 21
83.9643
  0
LINE
  8
0
 10
420.24
 20
83.9643
 11
420.702
 21
85.8368
  0
LINE
  8
0
 10
420.702
 20
85.8368
 11
421.598
 21
87.5445
  0
LINE
  8
0
 10
421.598
 20
87.5445
 11
422.877
 21
88.9881
  0
LINE
  8
0
 10
422.877
 20
88.9881
 11
424.464
 21
90.0836
  0
LINE
  8
0
 10
424.464
 20
90.0836
 11
426.267
 21
90.7675
  0
LINE
  8
0
 10
426.267
 20
90.7675
 11
427.33
 21
90.8966
  0
LINE
  8
0
 10
427.33
 20
90.8966
 11
428.182
 21
91
  0
LINE
  8
0
 10
599.455
 20
91
 11
600.306
 21
90.8966
  0
LINE
  8
0
 10
600.306
 20
90.8966
 11
601.369
 21
90.7675
  0
LINE
  8
0
 10
601.369
 20
90.7675
 11
603.172
 21
90.0836
  0
LINE
  8
0
 10
603.172
 20
90.0836
 11
604.76
 21
88.9881
  0
LINE
  8
0
 10
604.76
 20
88.9881
 11
606.038
 21
87.5445
  0
LINE
  8
0
 10
606.038
 20
87.5445
 11
606.935
 21
85.8368
  0
LINE
  8
0
 10
606.935
 20
85.8368
 11
607.396
 21
83.9643
  0
LINE
  8
0
 10
607.396
 20
83.9643
 11
607.396
 21
82.0357
  0
LINE
  8
0
 10
607.396
 20
82.0357
 11
606.935
 21
80.1632
  0
LINE
  8
0
 10
606.935
 20
80.1632
 11
606.038
 21
78.4555
  0
LINE
  8
0
 10
606.038
 20
78.4555
 11
604.76
 21
77.0119
  0
LINE
  8
0
 10
604.76
 20
77.0119
 11
603.172
 21
75.9164
  0
LINE
  8
0
 10
603.172
 20
75.9164
 11
601.369
 21
75.2325
  0
LINE
  8
0
 10
601.369
 20
75.2325
 11
600.518
 21
75.1291
  0
LINE
  8
0
 10
600.518
 20
75.1291
 11
599.455
 21
75
  0
LINE
  8
0
 10
599.455
 20
75
 11
598.391
 21
75.1291
  0
LINE
  8
0
 10
598.391
 20
75.1291
 11
597.54
 21
75.2325
  0
LINE
  8
0
 10
597.54
 20
75.2325
 11
595.737
 21
75.9164
  0
LINE
  8
0
 10
595.737
 20
75.9164
 11
594.15
 21
77.0119
  0
LINE
  8
0
 10
594.15
 20
77.0119
 11
592.871
 21
78.4555
  0
LINE
  8
0
 10
592.871
 20
78.4555
 11
591.974
 21
80.1632
  0
LINE
  8
0
 10
591.974
 20
80.1632
 11
591.513
 21
82.0357
  0
LINE
  8
0
 10
591.513
 20
82.0357
 11
591.513
 21
83.9643
  0
LINE
  8
0
 10
591.513
 20
83.9643
 11
591.974
 21
85.8368
  0
LINE
  8
0
 10
591.974
 20
85.8368
 11
592.871
 21
87.5445
  0
LINE
  8
0
 10
592.871
 20
87.5445
 11
594.15
 21
88.9881
  0
LINE
  8
0
 10
594.15
 20
88.9881
 11
595.737
 21
90.0836
  0
LINE
  8
0
 10
595.737
 20
90.0836
 11
597.54
 21
90.7675
  0
LINE
  8
0
 10
597.54
 20
90.7675
 11
598.603
 21
90.8966
  0
LINE
  8
0
 10
598.603
 20
90.8966
 11
599.455
 21
91
  0
LINE
  8
0
 10
770.727
 20
91
 11
771.579
 21
90.8966
  0
LINE
  8
0
 10
771.579
 20
90.8966
 11
772.642
 21
90.7675
  0
LINE
  8
0
 10
772.642
 20
90.7675
 11
774.445
 21
90.0836
  0
LINE
  8
0
 10
774.445
 20
90.0836
 11
776.032
 21
88.9881
  0
LINE
  8
0
 10
776.032
 20
88.9881
 11
777.311
 21
87.5445
  0
LINE
  8
0
 10
777.311
 20
87.5445
 11
778.207
 21
85.8368
  0
LINE
  8
0
 10
778.207
 20
85.8368
 11
778.669
 21
83.9643
  0
LINE
  8
0
 10
778.669
 20
83.9643
 11
778.669
 21
82.0357
  0
LINE
  8
0
 10
778.669
 20
82.0357
 11
778.207
 21
80.1632
  0
LINE
  8
0
 10
778.207
 20
80.1632
 11
777.311
 21
78.4555
  0
LINE
  8
0
 10
777.311
 20
78.4555
 11
776.032
 21
77.0119
  0
LINE
  8
0
 10
776.032
 20
77.0119
 11
774.445
 21
75.9164
  0
LINE
  8
0
 10
774.445
 20
75.9164
 11
772.642
 21
75.2325
  0
LINE
  8
0
 10
772.642
 20
75.2325
 11
771.79
 21
75.1291
  0
LINE
  8
0
 10
771.79
 20
75.1291
 11
770.727
 21
75
  0
LINE
  8
0
 10
770.727
 20
75
 11
769.664
 21
75.1291
  0
LINE
  8
0
 10
769.664
 20
75.1291
 11
768.813
 21
75.2325
  0
LINE
  8
0
 10
768.813
 20
75.2325
 11
767.009
 21
75.9164
  0
LINE
  8
0
 10
767.009
 20
75.9164
 11
765.422
 21
77.0119
  0
LINE
  8
0
 10
765.422
 20
77.0119
 11
764.143
 21
78.4555
  0
LINE
  8
0
 10
764.143
 20
78.4555
 11
763.247
 21
80.1632
  0
LINE
  8
0
 10
763.247
 20
80.1632
 11
762.786
 21
82.0357
  0
LINE
  8
0
 10
762.786
 20
82.0357
 11
762.786
 21
83.9643
  0
LINE
  8
0
 10
762.786
 20
83.9643
 11
763.247
 21
85.8368
  0
LINE
  8
0
 10
763.247
 20
85.8368
 11
764.143
 21
87.5445
  0
LINE
  8
0
 10
764.143
 20
87.5445
 11
765.422
 21
88.9881
  0
LINE
  8
0
 10
765.422
 20
88.9881
 11
767.009
 21
90.0836
  0
LINE
  8
0
 10
767.009
 20
90.0836
 11
768.813
 21
90.7675
  0
LINE
  8
0
 10
768.813
 20
90.7675
 11
769.876
 21
90.8966
  0
LINE
  8
0
 10
769.876
 20
90.8966
 11
770.727
 21
91
  0
LINE
  8
0
 10
942
 20
91
 11
942.851
 21
90.8966
  0
LINE
  8
0
 10
942.851
 20
90.8966
 11
943.915
 21
90.7675
  0
LINE
  8
0
 10
943.915
 20
90.7675
 11
945.718
 21
90.0836
  0
LINE
  8
0
 10
945.718
 20
90.0836
 11
947.305
 21
88.9881
  0
LINE
  8
0
 10
947.305
 20
88.9881
 11
948.584
 21
87.5445
  0
LINE
  8
0
 10
948.584
 20
87.5445
 11
949.48
 21
85.8368
  0
LINE
  8
0
 10
949.48
 20
85.8368
 11
949.942
 21
83.9643
  0
LINE
  8
0
 10
949.942
 20
83.9643
 11
949.942
 21
82.0357
  0
LINE
  8
0
 10
949.942
 20
82.0357
 11
949.48
 21
80.1632
  0
LINE
  8
0
 10
949.48
 20
80.1632
 11
948.584
 21
78.4555
  0
LINE
  8
0
 10
948.584
 20
78.4555
 11
947.305
 21
77.0119
  0
LINE
  8
0
 10
947.305
 20
77.0119
 11
945.718
 21
75.9164
  0
LINE
  8
0
 10
945.718
 20
75.9164
 11
943.915
 21
75.2325
  0
LINE
  8
0
 10
943.915
 20
75.2325
 11
943.063
 21
75.1291
  0
LINE
  8
0
 10
943.063
 20
75.1291
 11
942
 21
75
  0
LINE
  8
0
 10
942
 20
75
 11
940.937
 21
75.1291
  0
LINE
  8
0
 10
940.937
 20
75.1291
 11
940.085
 21
75.2325
  0
LINE
  8
0
 10
940.085
 20
75.2325
 11
938.282
 21
75.9164
  0
LINE
  8
0
 10
938.282
 20
75.9164
 11
936.695
 21
77.0119
  0
LINE
  8
0
 10
936.695
 20
77.0119
 11
935.416
 21
78.4555
  0
LINE
  8
0
 10
935.416
 20
78.4555
 11
934.52
 21
80.1632
  0
LINE
  8
0
 10
934.52
 20
80.1632
 11
934.058
 21
82.0357
  0
LINE
  8
0
 10
934.058
 20
82.0357
 11
934.058
 21
83.9643
  0
LINE
  8
0
 10
934.058
 20
83.9643
 11
934.52
 21
85.8368
  0
LINE
  8
0
 10
934.52
 20
85.8368
 11
935.416
 21
87.5445
  0
LINE
  8
0
 10
935.416
 20
87.5445
 11
936.695
 21
88.9881
  0
LINE
  8
0
 10
936.695
 20
88.9881
 11
938.282
 21
90.0836
  0
LINE
  8
0
 10
938.282
 20
90.0836
 11
940.085
 21
90.7675
  0
LINE
  8
0
 10
940.085
 20
90.7675
 11
941.149
 21
90.8966
  0
LINE
  8
0
 10
941.149
 20
90.8966
 11
942
 21
91
  0
ENDSEC
  0
SECTION
  2
OBJECTS
  0
DICTIONARY
  0
ENDSEC
  0
EOF
