  0
SECTION
  2
BLOCKS
  0
ENDSEC
  0
SECTION
  2
ENTITIES
  0
LINE
  8
0
 10
1250
 20
200
 11
200
 21
500
  0
LINE
  8
0
 10
200
 20
500
 11
200
 21
2500
  0
LINE
  8
0
 10
200
 20
2500
 11
-200
 21
2500
  0
LINE
  8
0
 10
-200
 20
2500
 11
-200
 21
500
  0
LINE
  8
0
 10
-200
 20
500
 11
-1250
 21
200
  0
LINE
  8
0
 10
-1250
 20
200
 11
-1250
 21
1.34061e-013
  0
LINE
  8
0
 10
-1250
 20
1.34061e-013
 11
1250
 21
-1.72091e-013
  0
LINE
  8
0
 10
1250
 20
-1.72091e-013
 11
1250
 21
200
  0
LINE
  8
0
 10
1200
 20
91
 11
1200
 21
75
  0
LINE
  8
0
 10
1200
 20
75
 11
1200
 21
75
  0
LINE
  8
0
 10
1200
 20
75
 11
-1200
 21
75
  0
LINE
  8
0
 10
-1200
 20
75
 11
-1200
 21
91
  0
LINE
  8
0
 10
-1200
 20
91
 11
-1200
 21
91
  0
LINE
  8
0
 10
-1200
 20
91
 11
1200
 21
91
  0
LINE
  8
0
 10
1199.92
 20
97.9876
 11
1199.92
 21
96.0124
  0
LINE
  8
0
 10
1199.92
 20
96.0124
 11
1199.28
 21
94.1443
  0
LINE
  8
0
 10
1199.28
 20
94.1443
 11
1198.06
 21
92.5857
  0
LINE
  8
0
 10
1198.06
 20
92.5857
 11
1196.41
 21
91.5054
  0
LINE
  8
0
 10
1196.41
 20
91.5054
 11
1194.5
 21
91.0205
  0
LINE
  8
0
 10
1194.5
 20
91.0205
 11
1192.53
 21
91.1836
  0
LINE
  8
0
 10
1192.53
 20
91.1836
 11
1190.72
 21
91.977
  0
LINE
  8
0
 10
1190.72
 20
91.977
 11
1189.27
 21
93.3147
  0
LINE
  8
0
 10
1189.27
 20
93.3147
 11
1188.33
 21
95.0518
  0
LINE
  8
0
 10
1188.33
 20
95.0518
 11
1188.15
 21
96.1137
  0
LINE
  8
0
 10
1188.15
 20
96.1137
 11
1188
 21
97
  0
LINE
  8
0
 10
1188
 20
97
 11
1188.18
 21
98.0619
  0
LINE
  8
0
 10
1188.18
 20
98.0619
 11
1188.33
 21
98.9482
  0
LINE
  8
0
 10
1188.33
 20
98.9482
 11
1189.27
 21
100.685
  0
LINE
  8
0
 10
1189.27
 20
100.685
 11
1190.72
 21
102.023
  0
LINE
  8
0
 10
1190.72
 20
102.023
 11
1192.53
 21
102.816
  0
LINE
  8
0
 10
1192.53
 20
102.816
 11
1194.5
 21
102.98
  0
LINE
  8
0
 10
1194.5
 20
102.98
 11
1196.41
 21
102.495
  0
LINE
  8
0
 10
1196.41
 20
102.495
 11
1198.06
 21
101.414
  0
LINE
  8
0
 10
1198.06
 20
101.414
 11
1199.28
 21
99.8557
  0
LINE
  8
0
 10
1199.28
 20
99.8557
 11
1199.92
 21
97.9876
  0
LINE
  8
0
 10
934.585
 20
97.9876
 11
934.585
 21
96.0124
  0
LINE
  8
0
 10
934.585
 20
96.0124
 11
933.944
 21
94.1443
  0
LINE
  8
0
 10
933.944
 20
94.1443
 11
932.73
 21
92.5857
  0
LINE
  8
0
 10
932.73
 20
92.5857
 11
931.077
 21
91.5054
  0
LINE
  8
0
 10
931.077
 20
91.5054
 11
929.162
 21
91.0205
  0
LINE
  8
0
 10
929.162
 20
91.0205
 11
927.194
 21
91.1836
  0
LINE
  8
0
 10
927.194
 20
91.1836
 11
925.385
 21
91.977
  0
LINE
  8
0
 10
925.385
 20
91.977
 11
923.932
 21
93.3147
  0
LINE
  8
0
 10
923.932
 20
93.3147
 11
922.992
 21
95.0518
  0
LINE
  8
0
 10
922.992
 20
95.0518
 11
922.815
 21
96.1137
  0
LINE
  8
0
 10
922.815
 20
96.1137
 11
922.667
 21
97
  0
LINE
  8
0
 10
922.667
 20
97
 11
922.844
 21
98.0619
  0
LINE
  8
0
 10
922.844
 20
98.0619
 11
922.992
 21
98.9482
  0
LINE
  8
0
 10
922.992
 20
98.9482
 11
923.932
 21
100.685
  0
LINE
  8
0
 10
923.932
 20
100.685
 11
925.385
 21
102.023
  0
LINE
  8
0
 10
925.385
 20
102.023
 11
927.194
 21
102.816
  0
LINE
  8
0
 10
927.194
 20
102.816
 11
929.162
 21
102.98
  0
LINE
  8
0
 10
929.162
 20
102.98
 11
931.077
 21
102.495
  0
LINE
  8
0
 10
931.077
 20
102.495
 11
932.73
 21
101.414
  0
LINE
  8
0
 10
932.73
 20
101.414
 11
933.944
 21
99.8557
  0
LINE
  8
0
 10
933.944
 20
99.8557
 11
934.585
 21
97.9876
  0
LINE
  8
0
 10
669.252
 20
97.9876
 11
669.252
 21
96.0124
  0
LINE
  8
0
 10
669.252
 20
96.0124
 11
668.61
 21
94.1443
  0
LINE
  8
0
 10
668.61
 20
94.1443
 11
667.397
 21
92.5857
  0
LINE
  8
0
 10
667.397
 20
92.5857
 11
665.744
 21
91.5054
  0
LINE
  8
0
 10
665.744
 20
91.5054
 11
663.829
 21
91.0205
  0
LINE
  8
0
 10
663.829
 20
91.0205
 11
661.86
 21
91.1836
  0
LINE
  8
0
 10
661.86
 20
91.1836
 11
660.052
 21
91.977
  0
LINE
  8
0
 10
660.052
 20
91.977
 11
658.598
 21
93.3147
  0
LINE
  8
0
 10
658.598
 20
93.3147
 11
657.658
 21
95.0518
  0
LINE
  8
0
 10
657.658
 20
95.0518
 11
657.481
 21
96.1137
  0
LINE
  8
0
 10
657.481
 20
96.1137
 11
657.333
 21
97
  0
LINE
  8
0
 10
657.333
 20
97
 11
657.511
 21
98.0619
  0
LINE
  8
0
 10
657.511
 20
98.0619
 11
657.658
 21
98.9482
  0
LINE
  8
0
 10
657.658
 20
98.9482
 11
658.598
 21
100.685
  0
LINE
  8
0
 10
658.598
 20
100.685
 11
660.052
 21
102.023
  0
LINE
  8
0
 10
660.052
 20
102.023
 11
661.86
 21
102.816
  0
LINE
  8
0
 10
661.86
 20
102.816
 11
663.829
 21
102.98
  0
LINE
  8
0
 10
663.829
 20
102.98
 11
665.744
 21
102.495
  0
LINE
  8
0
 10
665.744
 20
102.495
 11
667.397
 21
101.414
  0
LINE
  8
0
 10
667.397
 20
101.414
 11
668.61
 21
99.8557
  0
LINE
  8
0
 10
668.61
 20
99.8557
 11
669.252
 21
97.9876
  0
LINE
  8
0
 10
403.918
 20
97.9876
 11
403.918
 21
96.0124
  0
LINE
  8
0
 10
403.918
 20
96.0124
 11
403.277
 21
94.1443
  0
LINE
  8
0
 10
403.277
 20
94.1443
 11
402.064
 21
92.5857
  0
LINE
  8
0
 10
402.064
 20
92.5857
 11
400.41
 21
91.5054
  0
LINE
  8
0
 10
400.41
 20
91.5054
 11
398.495
 21
91.0205
  0
LINE
  8
0
 10
398.495
 20
91.0205
 11
396.527
 21
91.1836
  0
LINE
  8
0
 10
396.527
 20
91.1836
 11
394.718
 21
91.977
  0
LINE
  8
0
 10
394.718
 20
91.977
 11
393.265
 21
93.3147
  0
LINE
  8
0
 10
393.265
 20
93.3147
 11
392.325
 21
95.0518
  0
LINE
  8
0
 10
392.325
 20
95.0518
 11
392.148
 21
96.1137
  0
LINE
  8
0
 10
392.148
 20
96.1137
 11
392
 21
97
  0
LINE
  8
0
 10
392
 20
97
 11
392.177
 21
98.0619
  0
LINE
  8
0
 10
392.177
 20
98.0619
 11
392.325
 21
98.9482
  0
LINE
  8
0
 10
392.325
 20
98.9482
 11
393.265
 21
100.685
  0
LINE
  8
0
 10
393.265
 20
100.685
 11
394.718
 21
102.023
  0
LINE
  8
0
 10
394.718
 20
102.023
 11
396.527
 21
102.816
  0
LINE
  8
0
 10
396.527
 20
102.816
 11
398.495
 21
102.98
  0
LINE
  8
0
 10
398.495
 20
102.98
 11
400.41
 21
102.495
  0
LINE
  8
0
 10
400.41
 20
102.495
 11
402.064
 21
101.414
  0
LINE
  8
0
 10
402.064
 20
101.414
 11
403.277
 21
99.8557
  0
LINE
  8
0
 10
403.277
 20
99.8557
 11
403.918
 21
97.9876
  0
LINE
  8
0
 10
138.585
 20
97.9876
 11
138.585
 21
96.0124
  0
LINE
  8
0
 10
138.585
 20
96.0124
 11
137.944
 21
94.1443
  0
LINE
  8
0
 10
137.944
 20
94.1443
 11
136.73
 21
92.5857
  0
LINE
  8
0
 10
136.73
 20
92.5857
 11
135.077
 21
91.5054
  0
LINE
  8
0
 10
135.077
 20
91.5054
 11
133.162
 21
91.0205
  0
LINE
  8
0
 10
133.162
 20
91.0205
 11
131.194
 21
91.1836
  0
LINE
  8
0
 10
131.194
 20
91.1836
 11
129.385
 21
91.977
  0
LINE
  8
0
 10
129.385
 20
91.977
 11
127.932
 21
93.3147
  0
LINE
  8
0
 10
127.932
 20
93.3147
 11
126.992
 21
95.0518
  0
LINE
  8
0
 10
126.992
 20
95.0518
 11
126.815
 21
96.1137
  0
LINE
  8
0
 10
126.815
 20
96.1137
 11
126.667
 21
97
  0
LINE
  8
0
 10
126.667
 20
97
 11
126.844
 21
98.0619
  0
LINE
  8
0
 10
126.844
 20
98.0619
 11
126.992
 21
98.9482
  0
LINE
  8
0
 10
126.992
 20
98.9482
 11
127.932
 21
100.685
  0
LINE
  8
0
 10
127.932
 20
100.685
 11
129.385
 21
102.023
  0
LINE
  8
0
 10
129.385
 20
102.023
 11
131.194
 21
102.816
  0
LINE
  8
0
 10
131.194
 20
102.816
 11
133.162
 21
102.98
  0
LINE
  8
0
 10
133.162
 20
102.98
 11
135.077
 21
102.495
  0
LINE
  8
0
 10
135.077
 20
102.495
 11
136.73
 21
101.414
  0
LINE
  8
0
 10
136.73
 20
101.414
 11
137.944
 21
99.8557
  0
LINE
  8
0
 10
137.944
 20
99.8557
 11
138.585
 21
97.9876
  0
LINE
  8
0
 10
-126.748
 20
97.9876
 11
-126.748
 21
96.0124
  0
LINE
  8
0
 10
-126.748
 20
96.0124
 11
-127.39
 21
94.1443
  0
LINE
  8
0
 10
-127.39
 20
94.1443
 11
-128.603
 21
92.5857
  0
LINE
  8
0
 10
-128.603
 20
92.5857
 11
-130.256
 21
91.5054
  0
LINE
  8
0
 10
-130.256
 20
91.5054
 11
-132.171
 21
91.0205
  0
LINE
  8
0
 10
-132.171
 20
91.0205
 11
-134.14
 21
91.1836
  0
LINE
  8
0
 10
-134.14
 20
91.1836
 11
-135.948
 21
91.977
  0
LINE
  8
0
 10
-135.948
 20
91.977
 11
-137.402
 21
93.3147
  0
LINE
  8
0
 10
-137.402
 20
93.3147
 11
-138.342
 21
95.0518
  0
LINE
  8
0
 10
-138.342
 20
95.0518
 11
-138.519
 21
96.1137
  0
LINE
  8
0
 10
-138.519
 20
96.1137
 11
-138.667
 21
97
  0
LINE
  8
0
 10
-138.667
 20
97
 11
-138.489
 21
98.0619
  0
LINE
  8
0
 10
-138.489
 20
98.0619
 11
-138.342
 21
98.9482
  0
LINE
  8
0
 10
-138.342
 20
98.9482
 11
-137.402
 21
100.685
  0
LINE
  8
0
 10
-137.402
 20
100.685
 11
-135.948
 21
102.023
  0
LINE
  8
0
 10
-135.948
 20
102.023
 11
-134.14
 21
102.816
  0
LINE
  8
0
 10
-134.14
 20
102.816
 11
-132.171
 21
102.98
  0
LINE
  8
0
 10
-132.171
 20
102.98
 11
-130.256
 21
102.495
  0
LINE
  8
0
 10
-130.256
 20
102.495
 11
-128.603
 21
101.414
  0
LINE
  8
0
 10
-128.603
 20
101.414
 11
-127.39
 21
99.8557
  0
LINE
  8
0
 10
-127.39
 20
99.8557
 11
-126.748
 21
97.9876
  0
LINE
  8
0
 10
-392.082
 20
97.9876
 11
-392.082
 21
96.0124
  0
LINE
  8
0
 10
-392.082
 20
96.0124
 11
-392.723
 21
94.1443
  0
LINE
  8
0
 10
-392.723
 20
94.1443
 11
-393.936
 21
92.5857
  0
LINE
  8
0
 10
-393.936
 20
92.5857
 11
-395.59
 21
91.5054
  0
LINE
  8
0
 10
-395.59
 20
91.5054
 11
-397.505
 21
91.0205
  0
LINE
  8
0
 10
-397.505
 20
91.0205
 11
-399.473
 21
91.1836
  0
LINE
  8
0
 10
-399.473
 20
91.1836
 11
-401.282
 21
91.977
  0
LINE
  8
0
 10
-401.282
 20
91.977
 11
-402.735
 21
93.3147
  0
LINE
  8
0
 10
-402.735
 20
93.3147
 11
-403.675
 21
95.0518
  0
LINE
  8
0
 10
-403.675
 20
95.0518
 11
-403.852
 21
96.1137
  0
LINE
  8
0
 10
-403.852
 20
96.1137
 11
-404
 21
97
  0
LINE
  8
0
 10
-404
 20
97
 11
-403.823
 21
98.0619
  0
LINE
  8
0
 10
-403.823
 20
98.0619
 11
-403.675
 21
98.9482
  0
LINE
  8
0
 10
-403.675
 20
98.9482
 11
-402.735
 21
100.685
  0
LINE
  8
0
 10
-402.735
 20
100.685
 11
-401.282
 21
102.023
  0
LINE
  8
0
 10
-401.282
 20
102.023
 11
-399.473
 21
102.816
  0
LINE
  8
0
 10
-399.473
 20
102.816
 11
-397.505
 21
102.98
  0
LINE
  8
0
 10
-397.505
 20
102.98
 11
-395.59
 21
102.495
  0
LINE
  8
0
 10
-395.59
 20
102.495
 11
-393.936
 21
101.414
  0
LINE
  8
0
 10
-393.936
 20
101.414
 11
-392.723
 21
99.8557
  0
LINE
  8
0
 10
-392.723
 20
99.8557
 11
-392.082
 21
97.9876
  0
LINE
  8
0
 10
-657.415
 20
97.9876
 11
-657.415
 21
96.0124
  0
LINE
  8
0
 10
-657.415
 20
96.0124
 11
-658.056
 21
94.1443
  0
LINE
  8
0
 10
-658.056
 20
94.1443
 11
-659.27
 21
92.5857
  0
LINE
  8
0
 10
-659.27
 20
92.5857
 11
-660.923
 21
91.5054
  0
LINE
  8
0
 10
-660.923
 20
91.5054
 11
-662.838
 21
91.0205
  0
LINE
  8
0
 10
-662.838
 20
91.0205
 11
-664.806
 21
91.1836
  0
LINE
  8
0
 10
-664.806
 20
91.1836
 11
-666.615
 21
91.977
  0
LINE
  8
0
 10
-666.615
 20
91.977
 11
-668.068
 21
93.3147
  0
LINE
  8
0
 10
-668.068
 20
93.3147
 11
-669.008
 21
95.0518
  0
LINE
  8
0
 10
-669.008
 20
95.0518
 11
-669.185
 21
96.1137
  0
LINE
  8
0
 10
-669.185
 20
96.1137
 11
-669.333
 21
97
  0
LINE
  8
0
 10
-669.333
 20
97
 11
-669.156
 21
98.0619
  0
LINE
  8
0
 10
-669.156
 20
98.0619
 11
-669.008
 21
98.9482
  0
LINE
  8
0
 10
-669.008
 20
98.9482
 11
-668.068
 21
100.685
  0
LINE
  8
0
 10
-668.068
 20
100.685
 11
-666.615
 21
102.023
  0
LINE
  8
0
 10
-666.615
 20
102.023
 11
-664.806
 21
102.816
  0
LINE
  8
0
 10
-664.806
 20
102.816
 11
-662.838
 21
102.98
  0
LINE
  8
0
 10
-662.838
 20
102.98
 11
-660.923
 21
102.495
  0
LINE
  8
0
 10
-660.923
 20
102.495
 11
-659.27
 21
101.414
  0
LINE
  8
0
 10
-659.27
 20
101.414
 11
-658.056
 21
99.8557
  0
LINE
  8
0
 10
-658.056
 20
99.8557
 11
-657.415
 21
97.9876
  0
LINE
  8
0
 10
-922.748
 20
97.9876
 11
-922.748
 21
96.0124
  0
LINE
  8
0
 10
-922.748
 20
96.0124
 11
-923.39
 21
94.1443
  0
LINE
  8
0
 10
-923.39
 20
94.1443
 11
-924.603
 21
92.5857
  0
LINE
  8
0
 10
-924.603
 20
92.5857
 11
-926.256
 21
91.5054
  0
LINE
  8
0
 10
-926.256
 20
91.5054
 11
-928.171
 21
91.0205
  0
LINE
  8
0
 10
-928.171
 20
91.0205
 11
-930.14
 21
91.1836
  0
LINE
  8
0
 10
-930.14
 20
91.1836
 11
-931.948
 21
91.977
  0
LINE
  8
0
 10
-931.948
 20
91.977
 11
-933.402
 21
93.3147
  0
LINE
  8
0
 10
-933.402
 20
93.3147
 11
-934.342
 21
95.0518
  0
LINE
  8
0
 10
-934.342
 20
95.0518
 11
-934.519
 21
96.1137
  0
LINE
  8
0
 10
-934.519
 20
96.1137
 11
-934.667
 21
97
  0
LINE
  8
0
 10
-934.667
 20
97
 11
-934.489
 21
98.0619
  0
LINE
  8
0
 10
-934.489
 20
98.0619
 11
-934.342
 21
98.9482
  0
LINE
  8
0
 10
-934.342
 20
98.9482
 11
-933.402
 21
100.685
  0
LINE
  8
0
 10
-933.402
 20
100.685
 11
-931.948
 21
102.023
  0
LINE
  8
0
 10
-931.948
 20
102.023
 11
-930.14
 21
102.816
  0
LINE
  8
0
 10
-930.14
 20
102.816
 11
-928.171
 21
102.98
  0
LINE
  8
0
 10
-928.171
 20
102.98
 11
-926.256
 21
102.495
  0
LINE
  8
0
 10
-926.256
 20
102.495
 11
-924.603
 21
101.414
  0
LINE
  8
0
 10
-924.603
 20
101.414
 11
-923.39
 21
99.8557
  0
LINE
  8
0
 10
-923.39
 20
99.8557
 11
-922.748
 21
97.9876
  0
LINE
  8
0
 10
-1188.08
 20
97.9876
 11
-1188.08
 21
96.0124
  0
LINE
  8
0
 10
-1188.08
 20
96.0124
 11
-1188.72
 21
94.1443
  0
LINE
  8
0
 10
-1188.72
 20
94.1443
 11
-1189.94
 21
92.5857
  0
LINE
  8
0
 10
-1189.94
 20
92.5857
 11
-1191.59
 21
91.5054
  0
LINE
  8
0
 10
-1191.59
 20
91.5054
 11
-1193.5
 21
91.0205
  0
LINE
  8
0
 10
-1193.5
 20
91.0205
 11
-1195.47
 21
91.1836
  0
LINE
  8
0
 10
-1195.47
 20
91.1836
 11
-1197.28
 21
91.977
  0
LINE
  8
0
 10
-1197.28
 20
91.977
 11
-1198.73
 21
93.3147
  0
LINE
  8
0
 10
-1198.73
 20
93.3147
 11
-1199.67
 21
95.0518
  0
LINE
  8
0
 10
-1199.67
 20
95.0518
 11
-1199.85
 21
96.1137
  0
LINE
  8
0
 10
-1199.85
 20
96.1137
 11
-1200
 21
97
  0
LINE
  8
0
 10
-1200
 20
97
 11
-1199.82
 21
98.0619
  0
LINE
  8
0
 10
-1199.82
 20
98.0619
 11
-1199.67
 21
98.9482
  0
LINE
  8
0
 10
-1199.67
 20
98.9482
 11
-1198.73
 21
100.685
  0
LINE
  8
0
 10
-1198.73
 20
100.685
 11
-1197.28
 21
102.023
  0
LINE
  8
0
 10
-1197.28
 20
102.023
 11
-1195.47
 21
102.816
  0
LINE
  8
0
 10
-1195.47
 20
102.816
 11
-1193.5
 21
102.98
  0
LINE
  8
0
 10
-1193.5
 20
102.98
 11
-1191.59
 21
102.495
  0
LINE
  8
0
 10
-1191.59
 20
102.495
 11
-1189.94
 21
101.414
  0
LINE
  8
0
 10
-1189.94
 20
101.414
 11
-1188.72
 21
99.8557
  0
LINE
  8
0
 10
-1188.72
 20
99.8557
 11
-1188.08
 21
97.9876
  0
ENDSEC
  0
SECTION
  2
OBJECTS
  0
DICTIONARY
  0
ENDSEC
  0
EOF
